Oops, an error
Loading. Please wait.
We have an official Halloween Theme tab made by UG professional guitarists. Check out the tab »
×
26,889 views 48 this week
17 commentsread comments
1 2 3 4 5
x 58
add to favorites
×
Save as Personal and add changes to this tab that will be seen only by you. Learn more ›
×
You can save this tab as Personal to edit and correct it or add notes. All changes will be seen only by you. Learn more »
launch autoscroll
font size
0
reset
how to read this tab
guitar tuner
edit
Autoscroll
slow
fast
+/-
esc
set tempo
stop
Author
[Whole Song]
e|-13-------13-------13----14-----|x4
B|----11-11----11-11----11----11--|
G|--------------------------------|
D|--------------------------------|
A|--------------------------------|
E|--------------------------------|
                                
e|-11-----11-----11---12----------|x2
B|----9-9----9-9----9----9--------|
G|--------------------------------|
D|--------------------------------|
A|--------------------------------|
E|--------------------------------|

e|-13-------13-------13----14-----|
B|----11-11----11-11----11----11--|
G|--------------------------------|
D|--------------------------------|
A|--------------------------------|
E|--------------------------------|x4

e|-11-----11-----11---12----------|
B|----9-9----9-9----9----9--------|
G|--------------------------------|
D|--------------------------------|
A|--------------------------------|
E|--------------------------------|

e|--9-----9------9----10----------|
B|----7-7----7-7----7----7--------|
G|--------------------------------|
D|--------------------------------|
A|--------------------------------|
E|--------------------------------|

************************************

| x  Dead note

************************************

            
            
Suggest correction
Creating personal tab
Creating personal tab
You can edit any tab online and save it as your Personal.

You can edit, replace or remove any tab part or add personal notes – all changes will be seen only by you.

Personal tabs can be accessed anytime from any device, even offline.
Learn more »
comments
print report bad tab
17 comments total. Showing first comments.
+5 reply
xd4v3bl4de1x 124 Sep 14, 2007 11:27 AM

just wanted to let you know....

i was watching a vid on myspace and that is the bass line played on the guitar.

e:-------------------------------------
B:-------------------------------------
G:-------------------------------------
D:-------------------------------------
A:-------------------------------------
E:-2-5---1~-----2--5---1~-----2--5---1~

http://vids.myspace.com/index.cfm?fuseaction=vids.individual&VideoID=1561230

ive been tryin to figure out how he plays it man... its hard to see.

0 reply
Cruiser101 93 Oct 26, 2007 03:10 PM

i think its 100% right. good job

+3 reply
fifer 370 Oct 31, 2007 04:22 PM

I think that its actually 8 steps higher, I think it starts on a d note....so its like you said, but on the 20th fret of the first string...and I think the bass is actually:

A-------1---
E-2--5------

guest
You may want to rate the tab now too:
select rating
Wanna post a correction for this tab? Suggest correction