Oops, an error
Loading. Please wait.
We have Chord Pro version of Jack And Diane.
It's the closest thing you can get to the original song and it has interactive parts. Check out the tab »
×

Jack And Diane tab

version 7
version 7

Whole song

Interactive

Video

184 views 1 this week
no commentswrite comment
1 2 3 4 5
3 more votes to show rating
add to favorites
×
Save as Personal and add changes to this tab that will be seen only by you. Learn more ›
×
You can save this tab as Personal to edit and correct it or add notes. All changes will be seen only by you. Learn more »
launch autoscroll
font size
0
reset
how to read this tab
guitar tuner
edit
Autoscroll
slow
fast
+/-
esc
set tempo
stop
Author
Difficulty
intermediate
[Intro] (x3)
e|--------|--------|---------|--------|
B|2-------|0---2-0-|3--------|--------|
G|2-------|1---2-1-|2--------|--------|
D|2-------|2---2-2-|4---0-0--|----0-0-| 
A|0-------|0---0-0-|0--------|--------|
E|--------|--------|---------|--------|

[Verse 1]
      Little ditty about Jack and Diane, two American kids growin' up in the heartland
e|----------------------|-------------------|----------------------|------------------|
B|10--12--10--9---9--9--|7---7---9---10--9--|10--12--10--9---9--9--|7--9--10---10--10-|
G|-9---9---9--9---9--9--|7---7---9----9--9--|-9---9---9--9---9--9--|7--9---9----9---9-|
D|11--11--11--9---9--9--|7---7---9---11--9--|11--11--11--9---9--9--|7--9--11---11--11-|
A|-0---0---0--0---0--0--|0---0---0----0--0--|-0---0---0--0---0--0--|0--0---0----0---0-|
E|----------------------|-------------------|----------------------|------------------|

Jackie gonna be   a  football star,      Diane’s debutante, backseat of Jackie's car
e|----------------------|-------------------|----------------------|------------------|
B|10--12--10--9---9--9--|7---7---9---10--9--|10--12--10--9---9--9--|7--9--10---10--10-|
G|-9---9---9--9---9--9--|7---7---9----9--9--|-9---9---9--9---9--9--|7--9---9----9---9-|
D|11--11--11--9---9--9--|7---7---9---11--9--|11--11--11--9---9--9--|7--9--11---11--11-|
A|-0---0---0--0---0--0--|0---0---0----0--0--|-0---0---0--0---0--0--|0--0---0----0---0-|
E|----------------------|-------------------|----------------------|------------------|

e|---------------------|------------------|-------------------|--------------|
B|2--3--2--3/5------5--|3---3---5---5--5--|2--3--2--3/5---5---|3---3--2------|
G|2--2--2--2/4------4--|2---2---4---6--4--|2--2--2--2/4---4---|2---2--2------|
D|2--4--2--4/6------6--|4---4---6---7--6--|2--4--2--4/6---6---|4---4--2------|
A|0--0--0--0--------0--|0---0---0---0--0--|0--0--0--0---------|0---0--0------|
E|---------------------|------------------|-------------------|--------------|

[Verse 2]
Suckin' on chili dogs outside the Tastee Freez 
e|----------------------|-------------------|
B|10--12--10--9---9--9--|7---7---9---10--9--|
G|-9---9---9--9---9--9--|7---7---9----9--9--|
D|11--11--11--9---9--9--|7---7---9---11--9--|
A|-0---0---0--0---0--0--|0---0---0----0--0--|
E|----------------------|-------------------|

Diane's sittin' on Jackie's lap, he's got his hand between her knees
e|-----------------------------------|---------------------------|
B|10---12---10----9------9----9------|---7---9---10-----10---10--|
G|-9----9----9----9------9----9------|---7---9----9------9----9--|
D|11---11---11----9------9----9------|---7---9---11-----11---11--|
A|-0----0----0----0------0----0------|---0---0----0------0----0--|
E|-----------------------------------|---------------------------|

   Jackie say, hey, Diane, let's run off behind a shady trees
e|-----------------------------------|---------------------------|
B|10----12----10-----9-------9---9---|--7----7----9-----10----9--|
G|-9-----9-----9-----9-------9---9---|--7----7----9------9----9--|
D|11----11----11-----9-------9---9---|--7----7----9-----11----9--|
A|-0-----0-----0-----0-------0---0---|--0----0----0------0----0--|
E|-----------------------------------|---------------------------|

Dribble off those Bobby Brooks,  let me do what I please
e|----------------------------------|--------------------------|
B|10---12---10---9------9----9------|---7---9---10-----10---10-|
G|-9----9----9---9------9----9------|---7---9----9------9----9-|
D|11---11---11---9------9----9------|---7---9---11-----11---11-|
A|-0----0----0---0------0----0------|---0---0----0------0----0-|
E|----------------------------------|--------------------------|

[Chorus]
     Oh yeah,           life goes on,       long after the thrill of livin' is gone
e|----------------------|-------------------|----------------------|------------------|
B|10--12--10--9---9--9--|7---7---9---10--9--|10--12--10--9---9--9--|7--7---9---10---9-|
G|-9---9---9--9---9--9--|7---7---9----9--9--|-9---9---9--9---9--9--|7--7---9----9---9-|
D|11--11--11--9---9--9--|7---7---9---11--9--|11--11--11--9---9--9--|7--7---9---11---9-|
A|-0---0---0--0---0--0--|0---0---0----0--0--|-0---0---0--0---0--0--|0--0---0----0---0-|
E|----------------------|-------------------|----------------------|------------------|

     Oh yeah,           life goes on,     long after the thrill of livin' is gone, walk on
e|----------------------|-------------------|----------------------|-----------------|
B|10--12--10--9---9--9--|7---7---9---10--9--|10--12--10--9---9--9--|7--9--10---------|
G|-9---9---9--9---9--9--|7---7---9----9--9--|-9---9---9--9---9--9--|7--9---9---------|
D|11--11--11--9---9--9--|7---7---9---11--9--|11--11--11--9---9--9--|7--9--11---------|
A|-0---0---0--0---0--0--|0---0---0----0--0--|-0---0---0--0---0--0--|0--0---0---------|
E|----------------------|-------------------|----------------------|-----------------|

e|--------|--------|---------|---------|--------|--------|---------|---------|
B|2-------|0---2-0-|3--------|---------|2-------|0---2-0-|3--------|---------|
G|2-------|1---2-1-|2--------|---------|2-------|1---2-1-|2--------|---------|
D|2-------|2---2-2-|4---0-0--|----0-0--|2-------|2---2-2-|4---0-0--|----0-0--|  
A|0-------|0---0-0-|0--------|---------|0-------|0---0-0-|0--------|---------|
E|--------|--------|---------|---------|--------|--------|---------|---------|

[Verse 3]
Jackie sits back,        collects his  thoughts for the moment
e|-----------------------------------|---------------------------|
B|10----12----10-----9-------9---9---|--7----7----9-----10----9--|
G|-9-----9-----9-----9-------9---9---|--7----7----9------9----9--|
D|11----11----11-----9-------9---9---|--7----7----9-----11----9--|
A|-0-----0-----0-----0-------0---0---|--0----0----0------0----0--|
E|-----------------------------------|---------------------------|

Scratches his head,      and does his   best James Dean
e|----------------------------------|--------------------------|
B|10---12---10---9------9----9------|---7---9---10-----10---10-|
G|-9----9----9---9------9----9------|---7---9----9------9----9-|
D|11---11---11---9------9----9------|---7---9---11-----11---11-|
A|-0----0----0---0------0----0------|---0---0----0------0----0-|
E|----------------------------------|--------------------------|

Well you know, Diane   we oughta      run off to the city
e|-----------------------------------|---------------------------|
B|10----12----10-----9-------9---9---|--7----7----9-----10----9--|
G|-9-----9-----9-----9-------9---9---|--7----7----9------9----9--|
D|11----11----11-----9-------9---9---|--7----7----9-----11----9--|
A|-0-----0-----0-----0-------0---0---|--0----0----0------0----0--|
E|-----------------------------------|---------------------------|

   Diane says,   baby,        you ain't missin' nuth-in, Jackie say,
e|----------------------------------|--------------------------|
B|10---12---10---9------9----9------|---7---9---10-----10---10-|
G|-9----9----9---9------9----9------|---7---9----9------9----9-|
D|11---11---11---9------9----9------|---7---9---11-----11---11-|
A|-0----0----0---0------0----0------|---0---0----0------0----0-|
E|----------------------------------|--------------------------|

[Chorus]
     Oh yeah,           life goes on,       long after the thrill of livin' is gone
e|----------------------|-------------------|----------------------|------------------|
B|10--12--10--9---9--9--|7---7---9---10--9--|10--12--10--9---9--9--|7--7---9---10---9-|
G|-9---9---9--9---9--9--|7---7---9----9--9--|-9---9---9--9---9--9--|7--7---9----9---9-|
D|11--11--11--9---9--9--|7---7---9---11--9--|11--11--11--9---9--9--|7--7---9---11---9-|
A|-0---0---0--0---0--0--|0---0---0----0--0--|-0---0---0--0---0--0--|0--0---0----0---0-|
E|----------------------|-------------------|----------------------|------------------|

     Oh yeah,           life goes on,     long after the thrill of livin' is gone
e|----------------------|-------------------|----------------------|-----------------|
B|10--12--10--9---9--9--|7---7---9---10--9--|10--12--10--9---9--9--|7--9--10---------|
G|-9---9---9--9---9--9--|7---7---9----9--9--|-9---9---9--9---9--9--|7--9---9---------|
D|11--11--11--9---9--9--|7---7---9---11--9--|11--11--11--9---9--9--|7--9--11---------|
A|-0---0---0--0---0--0--|0---0---0----0--0--|-0---0---0--0---0--0--|0--0---0---------|
E|----------------------|-------------------|----------------------|-----------------|

So let it rock, let it roll
Let the Bible belt come and save my soul
Hold on to sixteen as long as you can  
Changes comin' 'round real soon, make us women and men

e|---------------------|------------------|-------------------|--------------|
B|2--3--2--3/5------5--|3---3---5---5--5--|2--3--2--3/5---5---|3---3--2------|
G|2--2--2--2/4------4--|2---2---4---6--4--|2--2--2--2/4---4---|2---2--2------|
D|2--4--2--4/6------6--|4---4---6---7--6--|2--4--2--4/6---6---|4---4--2------|
A|0--0--0--0--------0--|0---0---0---0--0--|0--0--0--0---------|0---0--0------|
E|---------------------|------------------|-------------------|--------------|

[Chorus] 
     Oh yeah,           life goes on,       long after the thrill of livin' is gone
e|----------------------|-------------------|----------------------|------------------|
B|10--12--10--9---9--9--|7---7---9---10--9--|10--12--10--9---9--9--|7--7---9---10---9-|
G|-9---9---9--9---9--9--|7---7---9----9--9--|-9---9---9--9---9--9--|7--7---9----9---9-|
D|11--11--11--9---9--9--|7---7---9---11--9--|11--11--11--9---9--9--|7--7---9---11---9-|
A|-0---0---0--0---0--0--|0---0---0----0--0--|-0---0---0--0---0--0--|0--0---0----0---0-|
E|----------------------|-------------------|----------------------|------------------|

     Oh yeah,           life goes on,     long after the thrill of livin' is gone
e|----------------------|-------------------|----------------------|-----------------|
B|10--12--10--9---9--9--|7---7---9---10--9--|10--12--10--9---9--9--|7--9--10---------|
G|-9---9---9--9---9--9--|7---7---9----9--9--|-9---9---9--9---9--9--|7--9---9---------|
D|11--11--11--9---9--9--|7---7---9---11--9--|11--11--11--9---9--9--|7--9--11---------|
A|-0---0---0--0---0--0--|0---0---0----0--0--|-0---0---0--0---0--0--|0--0---0---------|
E|----------------------|-------------------|----------------------|-----------------|

     Little ditty about Jack and Diane, two American kids doing the best they can
e|---------------------|----------------|-----------------------|------------------|
B|-5--------5----------|-3--------5-----|-5----------5----------|-3-----3----2-----|
G|-6--------4----------|-2--------4-----|-6----------4----------|-2-----2----2-----|
D|-7--------6----------|-4--------6-----|-7----------6----------|-4-----4----2-----|
A|-0--------0----------|-0--------0-----|-0----------0----------|-0-----0----0-----|
E|---------------------|----------------|-----------------------|------------------|

e|--------|---------|---------|---------|--------|---------|---------|---------|
B|2--0--0-|2--0-2-0-|3--------|---------|2--0--0-|2--0-2-0-|3--------|---------|
G|2--1--1-|2--1-2-1-|2--------|---------|2--1--1-|2--1-2-1-|2--------|---------| 
D|2--2--2-|2--2-2-2-|4---0-0--|----0-0--|2--2--2-|2--2-2-2-|4---0-0--|----0-0--|
A|0--0--0-|0--0-0-0-|0--------|---------|0--0--0-|0--0-0-0-|0--------|---------|
E|--------|---------|---------|---------|--------|---------|---------|---------|

[Optional Alternate Ending]
e|---------------------|----------------|-----------------------|------------------|
B|10--------9----------|-7--------9-----|-5----------5----------|-3-----0----2-----|
G|-9--------9----------|-7--------9-----|-6----------4----------|-2-----1----2-----|
D|11--------9----------|-7--------9-----|-7----------6----------|-4-----2----2-----|
A|-0--------0----------|-0--------0-----|-0----------0----------|-0-----0----0-----|
E|---------------------|----------------|-----------------------|------------------|

            
            
Suggest correction
Creating personal tab
Creating personal tab
You can edit any tab online and save it as your Personal.

You can edit, replace or remove any tab part or add personal notes – all changes will be seen only by you.

Personal tabs can be accessed anytime from any device, even offline.
Learn more »
Give kudos to tab author, rate the tab!
1 2 3 4 5
comments
print report bad tab
guest
You may want to rate the tab now too:
select rating
Wanna post a correction for this tab? Suggest correction