Oops, an error
Loading. Please wait.

Aspenglow tab

version 1
version 1

Whole song

Interactive

443 views 15 this week
no commentswrite comment
1 2 3 4 5
2 more votes to show rating
add to favorites
×
Save as Personal and add changes to this tab that will be seen only by you. Learn more ›
×
You can save this tab as Personal to edit and correct it or add notes. All changes will be seen only by you. Learn more »
launch autoscroll
font size
0
reset
how to read this tab
guitar tuner
edit
Autoscroll
slow
fast
+/-
esc
set tempo
stop
Author
Difficulty
-------------------------------------------------------------------------------
                             Aspenglow - John Denver
-------------------------------------------------------------------------------
Tabbed by: mide_erickson


Very simplified version, just to play if you don't want to play chords

Tuning: Standard
  Am                              Dm            F                   C
e|---------------------------------------------------------------------------|
B|----1--1--1-----------------------3--3--3-------1--1--1-------------1-1-1--|
G|----2--2--2-----------------------2--2--2-------2--2--2-------------2-2-2--|
D|--------------------------------0--0--0-------3--3--3----------------------|
A|--0--0--0----------------------------------------------------------3-3-3---|
E|---------------------------------------------------------------------------|

  See the sunlight through the    pines,    taste the warmth of winter  wines
  Am                              Dm            C              G
e|---------------------------------------------------------------------------|
B|----1--1--1-----------------------3--3--3-------1-1-1---------0-0-0--------|
G|----2--2--2-----------------------2--2--2-------2-2-2---------0-0-0--------|
D|--------------------------------0--0--0------------------------------------|
A|--0--0--0--------------------------------------3-3-3-----------------------|
E|-------------------------------------------------------------3-3-3---------|

  Dream of softly falling         snow        winter skol      Aspenglow

  Am                              Dm            F                   C
e|---------------------------------------------------------------------------|
B|----1--1--1-----------------------3--3--3-------1--1--1-------------1-1-1--|
G|----2--2--2-----------------------2--2--2-------2--2--2-------------2-2-2--|
D|--------------------------------0--0--0-------3--3--3----------------------|
A|--0--0--0----------------------------------------------------------3-3-3---|
E|---------------------------------------------------------------------------|

  As the winter days              unfold   hearts grow warmer with the   cold
  Am                              Dm            C              G
e|---------------------------------------------------------------------------|
B|----1--1--1-----------------------3--3--3-------1-1-1---------0-0-0--------|
G|----2--2--2-----------------------2--2--2-------2-2-2---------0-0-0--------|
D|--------------------------------0--0--0------------------------------------|
A|--0--0--0--------------------------------------3-3-3-----------------------|
E|-------------------------------------------------------------3-3-3---------|

  Peace of mind is all you         know      winter skol      Aspenglow


Chorus
  F                    C        F                          C
e|---------------------------------------------------------------------------|
B|--1-1-1--------------1-1-1----1-1-1-----------------------1-1-1------------|
G|--2-2-2--------------2-2-2----2-2-2-----------------------2-2-2------------|
D|-3-3-3-----------------------3-3-3-----------------------------------------|
A|--------------------3-3-3--------------------------------3-3-3-------------|
E|---------------------------------------------------------------------------|

  Aspen is the life to  live    See how much there is to     give
  F                       C          D                      G
e|---------------------------------------------------------------------------|
B|--1-1-1-----------------1-1-1-------3-3-3------------------0-0-0-----------|
G|--2-2-2-----------------2-2-2-------2-2-2------------------0-0-0-----------|
D|-3-3-3-----------------------------0-0-0-----------------------------------|
A|-----------------------3-3-3-----------------------------------------------|
E|----------------------------------------------------------3-3-3------------|

  See how strongly you     believe,   see how much you may    receive.



  Am                              Dm            F                   C
e|---------------------------------------------------------------------------|
B|----1--1--1-----------------------3--3--3-------1--1--1-------------1-1-1--|
G|----2--2--2-----------------------2--2--2-------2--2--2-------------2-2-2--|
D|--------------------------------0--0--0-------3--3--3----------------------|
A|--0--0--0----------------------------------------------------------3-3-3---|
E|---------------------------------------------------------------------------|

  Smiling faces all             around       laughter is the only     sound
  Am                              Dm            C              G
e|---------------------------------------------------------------------------|
B|----1--1--1-----------------------3--3--3-------1-1-1---------0-0-0--------|
G|----2--2--2-----------------------2--2--2-------2-2-2---------0-0-0--------|
D|--------------------------------0--0--0------------------------------------|
A|--0--0--0--------------------------------------3-3-3-----------------------|
E|-------------------------------------------------------------3-3-3---------|

  Memories that cant grow          old      winter skol      Aspenglow

  Am                              Dm            F                   C
e|---------------------------------------------------------------------------|
B|----1--1--1-----------------------3--3--3-------1--1--1-------------1-1-1--|
G|----2--2--2-----------------------2--2--2-------2--2--2-------------2-2-2--|
D|--------------------------------0--0--0-------3--3--3----------------------|
A|--0--0--0----------------------------------------------------------3-3-3---|
E|---------------------------------------------------------------------------|

  Am                              Dm            C              G
e|---------------------------------------------------------------------------|
B|----1--1--1-----------------------3--3--3-------1-1-1---------0-0-0--------|
G|----2--2--2-----------------------2--2--2-------2-2-2---------0-0-0--------|
D|--------------------------------0--0--0------------------------------------|
A|--0--0--0--------------------------------------3-3-3-----------------------|
E|-------------------------------------------------------------3-3-3---------|


Chorus 


 F                    C        F                          C
e|---------------------------------------------------------------------------|
B|--1-1-1--------------1-1-1----1-1-1-----------------------1-1-1------------|
G|--2-2-2--------------2-2-2----2-2-2-----------------------2-2-2------------|
D|-3-3-3-----------------------3-3-3-----------------------------------------|
A|--------------------3-3-3--------------------------------3-3-3-------------|
E|---------------------------------------------------------------------------|

  Aspen is the life to  live    See how much there is to     give
  F                       C          D                      G
e|---------------------------------------------------------------------------|
B|--1-1-1-----------------1-1-1-------3-3-3------------------0-0-0-----------|
G|--2-2-2-----------------2-2-2-------2-2-2------------------0-0-0-----------|
D|-3-3-3-----------------------------0-0-0-----------------------------------|
A|-----------------------3-3-3-----------------------------------------------|
E|----------------------------------------------------------3-3-3------------|

  See how strongly you     believe,   see how much you may    receive.


  Am                              Dm            F                   C
e|---------------------------------------------------------------------------|
B|----1--1--1-----------------------3--3--3-------1--1--1-------------1-1-1--|
G|----2--2--2-----------------------2--2--2-------2--2--2-------------2-2-2--|
D|--------------------------------0--0--0-------3--3--3----------------------|
A|--0--0--0----------------------------------------------------------3-3-3---|
E|---------------------------------------------------------------------------|

  See the sunlight through the    pines,    taste the warmth of winter  wines
  Am                              Dm            C              G
e|---------------------------------------------------------------------------|
B|----1--1--1-----------------------3--3--3-------1-1-1---------0-0-0--------|
G|----2--2--2-----------------------2--2--2-------2-2-2---------0-0-0--------|
D|--------------------------------0--0--0------------------------------------|
A|--0--0--0--------------------------------------3-3-3-----------------------|
E|-------------------------------------------------------------3-3-3---------|

  Dream of softly falling         snow        winter skol      Aspenglow

   C             C
e|------------------------------|
B|---1-1-1---------1-1-1--------|
G|---2-2-2---------2-2-2--------|
D|------------------------------|
A|--3-3-3---------3-3-3---------|
E|------------------------------|

  winter skol      Aspenglow


************************************

Hope you enjoyed :)

************************************

            
            
Suggest correction
Creating personal tab
Creating personal tab
You can edit any tab online and save it as your Personal.

You can edit, replace or remove any tab part or add personal notes – all changes will be seen only by you.

Personal tabs can be accessed anytime from any device, even offline.
Learn more »
Give kudos to tab author, rate the tab!
1 2 3 4 5
comments
print report bad tab
guest
You may want to rate the tab now too:
select rating
Wanna post a correction for this tab? Suggest correction