Oops, an error
Loading. Please wait.

Sunshine On My Shoulders tab

version 2
version 2

Whole song

Interactive

14,303 views 27 this week
no commentswrite comment
1 2 3 4 5
x 4
add to favorites
×
Save as Personal and add changes to this tab that will be seen only by you. Learn more ›
×
You can save this tab as Personal to edit and correct it or add notes. All changes will be seen only by you. Learn more »
launch autoscroll
font size
0
reset
how to read this tab
guitar tuner
edit
Autoscroll
slow
fast
+/-
esc
set tempo
stop
SUNSHINE ON MY SHOULDERS
-------------------------------------------------------------------------------
Tabbed by: ALEX FERREIRA
Email:grandripper_1@hotmail.com

Tuning: Standard

                    READ THE FOLLOWING BEFORE YOU START!!!!


THIS IS A SIMPLE VERSION OF THE SONG SO DON'T EXPECT PINPOINT ACCURACY

If you want too you can play with the CAPO on the 3rd Fret (probably sounds better)

It is easier to play the chords to this song and pluck the strings.
these are the chords you use but their not in order   G , Am7 , Am , D , Bm , C

 h hammer-on
 p pull-off

                                    START NOW

First put your fingers in a G note Position then change to a Am7 position
 when you do the hammer down bit. Repeat this twice for an intro into the song
e|--------------------------------------------------------------------------|
B|-----------0--------------------1p0---------------------------------------|
G|------0---------0----------0----------0-----------------------------------|
D|---------------------0h2--------------------------------------------------|
A|--------------------------------------------------------------------------|
E|--3-----------------------------------------------------------------------|


Repeat 6 more times while singing

Sunshine on my shoulders makes me happy, Sunshine in my eyes can make me-

e|--------------------------------------------------------------------------|
B|-----------0--------------------1p0---------------------------------------|
G|------0---------0----------0----------0-----------------------------------|
D|---------------------0h2--------------------------------------------------|
A|--------------------------------------------------------------------------|
E|--3-----------------------------------------------------------------------|


   -cry.  Here you change to Am and then to D where the Vertical line of dollar signs is
e|---------------------0------------0----$-----------------------2---------2-----|
B|------------1------------1-------------$--------------3------------3-----------|
G|-------2--------2------------2---------$---------2---------2----------2--------|
D|---------------------------------------$------0--------------------------------|
A|---0-----------------------------------$---------------------------------------|
E|---------------------------------------$---------------------------------------|

Repeat Main tune 10 more times. Twice before continuing singing...

Sunshine on the water looks so lovely, Sunshine almost always makes me high
e|--------------------------------------------------------------------------|
B|-----------0--------------------1p0---------------------------------------|
G|------0---------0----------0----------0-----------------------------------|
D|---------------------0h2--------------------------------------------------|
A|--------------------------------------------------------------------------|
E|--3-----------------------------------------------------------------------|

Here you are plucking G, Am, the bar chord Bm, C, D. When you see the
 Dollar signs in a vertical line that means you change chords. While Playing sing the words…

If I had a day that I could give you
Id give to you a day just like today
If I had a song that I could sing for you
Id sing a song to make you feel this way

Playing G        Change to Am      Change to Bm            Change to C
e|---------------------$--------------------$------------------- $---------------------|
B|-----------0---------$------------1-------$------------3------ $------------1--------|
G|------0---------0----$-------2--------2---$------4---------4---$-------0--------0----|
D|---------------------$--------------------$--------------------$---------------------|
A|---------------------$---0----------------$--2-----------------$--3------------------|
E|--3------------------$--------------------$--------------------$---------------------|
Repeat 6 times but after the 3rd and 6th time you pluck Am then D like this…


Playing Am                            Change to D
e|---------------------0------------0------$--------------------2---------2--------|
B|------------1------------1---------------$------------3-----------3--------------|
G|-------2--------2------------2-----------$---------2-------2----------2----------|
D|-----------------------------------------$---0-----------------------------------|
A|---0-------------------------------------$---------------------------------------|
E|-----------------------------------------$---------------------------------------|

Repeat this whole Tab for the rest of the song

Sunshine on my shoulders makes me happy
Sunshine in my eyes can make me cry
Sunshine on the water looks so lovely
Sunshine almost always makes me high

If I had a tale that I could tell you
Id tell a tale sure to make you smile
If I had a wish that I could wish for you
Id make a wish for sunshine all the while

Sunshine on my shoulders makes me happy
Sunshine in my eyes can make me cry
Sunshine on the water looks so lovely
Sunshine almost always makes me high
Sunshine almost all the time makes me high
Sunshine almost always

FINISHED

I hope you understood my language and hope you learn this Amazing song

If you have any questions just email me at:
grandripper_1@hotmail.com

THANK YOU FOR READING

            
            
Suggest correction
Creating personal tab
Creating personal tab
You can edit any tab online and save it as your Personal.

You can edit, replace or remove any tab part or add personal notes – all changes will be seen only by you.

Personal tabs can be accessed anytime from any device, even offline.
Learn more »
comments
print report bad tab
guest
You may want to rate the tab now too:
select rating
Wanna post a correction for this tab? Suggest correction