Oops, an error
Loading. Please wait.

Knoxville Blues tab

774 views 3 this week
no commentswrite comment
1 2 3 4 5
2 more votes to show rating
add to favorites
×
Save as Personal and add changes to this tab that will be seen only by you. Learn more ›
×
You can save this tab as Personal to edit and correct it or add notes. All changes will be seen only by you. Learn more »
launch autoscroll
font size
0
reset
how to read this tab
guitar tuner
edit
Autoscroll
slow
fast
+/-
esc
set tempo
stop
Knoxville Blues
by Sam McGee
Arr. by John Fahey on his album "America"

Transcribed by Mike Zuber mdz0739@yahoo.com

Open D tuning


[Section 1]  (3/4 TIME SIG.)

D |---------------|--4---------------|--3---------------|--4----3----4----|
A |------------0--|---------------0--|---------------0--|-----------------|
F#|---------------|------------------|------------------|-----------------|
D |---------------|-------0----0-----|-------0----0-----|-------0----0----|
A |---------------|------------------|------------------|-----------------|
D |---------------|--0---------------|--0---------------|--0--------------|

D |--0--------------|--5--------------|-----------------|-----------------|
A |-----------------|-----------------|--5--------------|--0--------------|
F#|-----------------|-----------------|------------5----|-----------------|
D |-------0----0----|-------5----5----|-------5----5----|-------0----0----|
A |-----------------|-----------------|-----------------|-----------------|
D |--0--------------|--5--------------|--5--------------|--0--------------|

D |--0---------------|--4--------------|--3---------------|--4----3----4----|
A |---------------0--|-----------------|---------------0--|-----------------|
F#|------------------|-----------------|------------------|-----------------|
D |-------0----0-----|-------0----0----|-------0----0-----|-------0----0----|
A |------------------|-----------------|------------------|-----------------|
D |--0---------------|--0--------------|--0---------------|--0--------------|

D |--0--------------|-----------------|--2---------4----|--2--------------|
A |-----------------|--0--------------|-----------------|-----------------|
F#|-----------------|-----------------|-----------------|-----------------|
D |-------0----0----|-------2----2----|-------2----2----|-------2----2----|
A |-----------------|--0--------------|--0--------------|--0--------------|
D |--0--------------|-----------------|-----------------|-----------------|

D |-----------------|--4---------------|--3---------------|--4----3----4----|
A |-----------------|---------------0--|---------------0--|-----------------|
F#|-----------------|------------------|------------------|-----------------|
D |-----------------|-------0----0-----|-------0----0-----|-------0----0----|
A |--0----2----4----|------------------|------------------|-----------------|
D |-----------------|--0---------------|--0---------------|--0--------------|

D |--0--------------|--5--------------|-----------------|-----------------|
A |-----------------|-----------------|--5--------------|--0--------------|
F#|-----------------|-----------------|------------5----|-----------------|
D |-------0----0----|-------5----5----|-------5----5----|-------0----0----|
A |-----------------|-----------------|-----------------|-----------------|
D |--0--------------|--5--------------|--5--------------|--0--------------|

D |--0--------------|-----------------|--2---------4----|--2--------------|
A |-----------------|--0--------------|-----------------|-----------------|
F#|-----------------|-----------------|-----------------|-----------------|
D |-------0----0----|-------2----2----|-------2----2----|-------2----2----|
A |-----------------|--0--------------|--0--------------|--0--------------|
D |--0--------------|-----------------|-----------------|-----------------|

D |-----------------|-----------------|-----------------|--0----------0-----|
A |--0--------------|--0---------0----|--2---------4----|----------0-----0--|
F#|-----------------|-----------------|-----------------|-------------------|
D |-------2----2----|-------2----2----|-------2----2----|-------0-----0-----|
A |--0--------------|--0--------------|--0--------------|-------------------|
D |-----------------|-----------------|-----------------|--0----------------|

D |--0--------------|--4---------------|--3---------------|--4/---12----12----|
A |-----------------|---------------0--|---------------0--|-------------------|
F#|-----------------|------------------|------------------|-------------------|
D |-------0----0----|-------0----0-----|-------0----0-----|-------0-----0-----|
A |-----------------|------------------|------------------|-------------------|
D |--0--------------|--0---------------|--0---------------|--0----------------|

D |--12--------------|--5--------------|-----------------|------------------|
A |------------------|-----------------|--5--------------|--0------------0--|
F#|------------------|-----------------|------------5----|------------------|
D |--------0----0----|-------5----5----|-------5----5----|-------0----0-----|
A |------------------|-----------------|-----------------|------------------|
D |--0---------------|--5--------------|--5--------------|--0---------------|

D |--0--------------|--4--------------|--3--------------|--4/---12----12----|
A |-----------------|-----------------|--------------0--|-------------------|
F#|-----------------|-----------------|-----------------|-------------------|
D |-------0----0----|-------0----0----|-------0----0----|-------0-----0-----|
A |-----------------|-----------------|-----------------|-------------------|
D |--0--------------|--0--------------|--0--------------|--0----------------|

D |--12--------------|-----------------|--2---------4----|--2--------------|
A |------------------|--0--------------|-----------------|-----------------|
F#|------------------|-----------------|-----------------|-----------------|
D |--------0----0----|-------2----2----|-------2----2----|-------2----2----|
A |------------------|--0--------------|--0--------------|--0--------------|
D |--0---------------|-----------------|-----------------|-----------------|

D |-----------------|--4--------------|--3--------------|--4/---12----12----|
A |-----------------|-----------------|-----------------|-------------------|
F#|-----------------|-----------------|-----------------|-------------------|
D |-----------------|-------0----0----|-------0----0----|-------0-----0-----|
A |--0----2----4----|-----------------|-----------------|-------------------|
D |-----------------|--0--------------|--0--------------|--0----------------|

D |--12--------------|--5--------------|-----------------|------------------|
A |------------------|-----------------|--5--------------|--0------------0--|
F#|------------------|-----------------|------------5----|------------------|
D |--------0----0----|-------5----5----|-------5----5----|-------0----0-----|
A |------------------|-----------------|-----------------|------------------|
D |--0---------------|--5--------------|--5--------------|--0---------------|

D |--0--------------|-----------------|--2---------4----|--2--------------|
A |-----------------|--0--------------|-----------------|-----------------|
F#|-----------------|-----------------|-----------------|-----------------|
D |-------0----0----|-------2----2----|-------2----2----|-------2----2----|
A |-----------------|--0--------------|--0--------------|--0--------------|
D |--0--------------|-----------------|-----------------|-----------------|

D |-----------------|-----------------|-----------------|--0----------0-----|
A |--0--------------|--0---------0----|--2---------4----|----------0-----0--|
F#|-----------------|-----------------|-----------------|-------------------|
D |-------2----2----|-------2----2----|-------2----2----|-------0-----0-----|
A |--0--------------|--0--------------|--0--------------|-------------------|
D |-----------------|-----------------|-----------------|--0----------------|

D |--0------------|
A |--0------------|
F#|--0------------|
D |--0------------|
A |--0------------|
D |--0------------|


[Section 2] (x2)  (4/4 TIME SIG.)

Note: All 2nd string notes at the 8th fret not marked as a bend are actually
held in a bend from the previous one.

D |--------7--------7-------|--------7--------7-------|--------7--------7--------|
A |--8b----------8----------|--8b----------8----------|--8b----------8-----8b----|
F#|-------------------------|-------------------------|--------------------------|
D |-----------0--------0----|-----------0--------0----|-----------0-----------0--|
A |-------------------------|-------------------------|--------------------------|
D |-----0-----------0-------|-----0-----------0-------|-----0-----------0--------|

D |--0---------------0----|--------7--------7-------|--------7--------7-------|
A |----------0------------|--8b----------8----------|--8b----------8----------|
F#|-----------------------|-------------------------|-------------------------|
D |-------0----------0----|-----------0--------0----|-----------0--------0----|
A |-----------------------|-------------------------|-------------------------|
D |--0----------0---------|-----0-----------0-------|-----0-----------0-------|

D |--------7--------7--------|--0-------------------0--|----------------------|
A |--8b----------8-----8b----|----------9-----7--------|--5-------------------|
F#|--------------------------|-------------------------|------------5---------|
D |-----------0-----------0--|-------0-----------0-----|-------5---------5----|
A |--------------------------|-------------------------|----------------------|
D |-----0-----------0--------|--0----------0-----------|--5---------5---------|

D |-------------------------|--0------------------0--|----------------0--------|
A |--5h-7-----5-------------|---------------0h-2-----|----------0-----------0--|
F#|-----------------5-------|------------------------|-------------------------|
D |--------5-----------5----|-------0----------0-----|-------0-----------0-----|
A |-------------------------|------------------------|-------------------------|
D |--5-----------5----------|--0---------0-----------|--0----------0-----------|

D |-------2---------------|--2-------2-----2--------|--0------------------0--|
A |--0------------0-------|----------------------0--|---------------0h-2-----|
F#|-----------------------|-------------------------|------------------------|
D |-------2----------2----|-------2-----------2-----|-------0----------0-----|
A |--0---------0----------|--0----------0-----------|------------------------|
D |-----------------------|-------------------------|--0---------0-----------|

D |----------------0--------|
A |----------0-----------0--|
F#|-------------------------|
D |-------0-----------0-----|
A |-------------------------|
D |--0----------0-----------|


[Section 3] (x2)

D |12-12--------9---------|--7---------4---------|
A |-----------------------|----------------------|
F#|-----------------------|----------------------|
D |--------0---------0----|-------0---------0----|
A |-----------------------|----------------------|
D |---0---------0---------|--0---------0---------|

D |--7---------9--9-------|----------0------------|--12---------9--9-------|
A |-----------------------|--8b-------------------|------------------------|
F#|-----------------------|-----------------------|------------------------|
D |-------0----------0----|-------0----------0----|--------0----------0----|
A |-----------------------|-----------------------|------------------------|
D |--0---------0----------|--0----------0---------|--0----------0----------|

D |--7-------9-----7-------|----------7-------------|--0-------------------0--|
A |------------------------|--8b------------8b------|----------9-----7--------|
F#|------------------------|------------------------|-------------------------|
D |-------0-----------0----|-------0-----------0----|-------0-----------0-----|
A |------------------------|------------------------|-------------------------|
D |--0----------0----------|--0----------0----------|--0----------0-----------|

D |----------------------|-------------------------|--0------------------0--|
A |--5-------------------|--5h-7-----5-------------|---------------0h-2-----|
F#|------------5---------|-----------------5-------|------------------------|
D |-------5---------5----|--------5-----------5----|-------0----------0-----|
A |----------------------|-------------------------|------------------------|
D |--5---------5---------|--5-----------5----------|--0---------0-----------|

D |----------------0--------|-------2---------------|--2-------------2--------|
A |----------0-----------0--|--0------------0-------|----------0-----------0--|
F#|-------------------------|-----------------------|-------------------------|
D |-------0-----------0-----|-------2----------2----|-------2-----------2-----|
A |-------------------------|--0---------0----------|--0----------0-----------|
D |--0----------0-----------|-----------------------|-------------------------|

D |--0------------------0--|----------------0--------|
A |---------------0h-2-----|----------0-----------0--|
F#|------------------------|-------------------------|
D |-------0----------0-----|-------0-----------0-----|
A |------------------------|-------------------------|
D |--0---------0-----------|--0----------0-----------|


[Section 2]  (4/4 TIME SIG.)

Note: All 2nd string notes at the 8th fret not marked as a bend are actually
held in a bend from the previous one.

D |--------7--------7-------|--------7--------7-------|--------7--------7--------|
A |--8b----------8----------|--8b----------8----------|--8b----------8-----8b----|
F#|-------------------------|-------------------------|--------------------------|
D |-----------0--------0----|-----------0--------0----|-----------0-----------0--|
A |-------------------------|-------------------------|--------------------------|
D |-----0-----------0-------|-----0-----------0-------|-----0-----------0--------|

D |--0---------------0----|--------7--------7-------|--------7--------7-------|
A |----------0------------|--8b----------8----------|--8b----------8----------|
F#|-----------------------|-------------------------|-------------------------|
D |-------0----------0----|-----------0--------0----|-----------0--------0----|
A |-----------------------|-------------------------|-------------------------|
D |--0----------0---------|-----0-----------0-------|-----0-----------0-------|

D |--------7--------7--------|--0-------------------0--|----------------------|
A |--8b----------8-----8b----|----------9-----7--------|--5-------------------|
F#|--------------------------|-------------------------|------------5---------|
D |-----------0-----------0--|-------0-----------0-----|-------5---------5----|
A |--------------------------|-------------------------|----------------------|
D |-----0-----------0--------|--0----------0-----------|--5---------5---------|

D |-------------------------|--0------------------0--|----------------0--------|
A |--5h-7-----5-------------|---------------0h-2-----|----------0-----------0--|
F#|-----------------5-------|------------------------|-------------------------|
D |--------5-----------5----|-------0----------0-----|-------0-----------0-----|
A |-------------------------|------------------------|-------------------------|
D |--5-----------5----------|--0---------0-----------|--0----------0-----------|

D |-------2---------------|--2-------2-----2--------|--0------------------0--|
A |--0------------0-------|----------------------0--|---------------0h-2-----|
F#|-----------------------|-------------------------|------------------------|
D |-------2----------2----|-------2-----------2-----|-------0----------0-----|
A |--0---------0----------|--0----------0-----------|------------------------|
D |-----------------------|-------------------------|--0---------0-----------|

D |----------------0--------|
A |----------0-----------0--|
F#|-------------------------|
D |-------0-----------0-----|
A |-------------------------|
D |--0----------0-----------|


[Section 3] 

D |12-12--------9---------|--7---------4---------|
A |-----------------------|----------------------|
F#|-----------------------|----------------------|
D |--------0---------0----|-------0---------0----|
A |-----------------------|----------------------|
D |---0---------0---------|--0---------0---------|

D |--7---------9--9-------|----------0------------|--12---------9--9-------|
A |-----------------------|--8b-------------------|------------------------|
F#|-----------------------|-----------------------|------------------------|
D |-------0----------0----|-------0----------0----|--------0----------0----|
A |-----------------------|-----------------------|------------------------|
D |--0---------0----------|--0----------0---------|--0----------0----------|

D |--7-------9-----7-------|----------7-------------|--0-------------------0--|
A |------------------------|--8b------------8b------|----------9-----7--------|
F#|------------------------|------------------------|-------------------------|
D |-------0-----------0----|-------0-----------0----|-------0-----------0-----|
A |------------------------|------------------------|-------------------------|
D |--0----------0----------|--0----------0----------|--0----------0-----------|

D |----------------------|-------------------------|--0------------------0--|
A |--5-------------------|--5h-7-----5-------------|---------------0h-2-----|
F#|------------5---------|-----------------5-------|------------------------|
D |-------5---------5----|--------5-----------5----|-------0----------0-----|
A |----------------------|-------------------------|------------------------|
D |--5---------5---------|--5-----------5----------|--0---------0-----------|

D |----------------0--------|-------2---------------|--2-------------2--------|
A |----------0-----------0--|--0------------0-------|----------0-----------0--|
F#|-------------------------|-----------------------|-------------------------|
D |-------0-----------0-----|-------2----------2----|-------2-----------2-----|
A |-------------------------|--0---------0----------|--0----------0-----------|
D |--0----------0-----------|-----------------------|-------------------------|

[Ending]
D |--0------------------0--|--0----------------|
A |---------------0h-2-----|--0----------------|
F#|------------------------|--0----------------|
D |-------0----------0-----|--0----------------|
A |------------------------|--0----------------|
D |--0---------0--------0--|--0----------------|


************************************

| /  Slide up
| b  Bend
| h  Hammer-on

************************************

            
            
Suggest correction
Creating personal tab
Creating personal tab
You can edit any tab online and save it as your Personal.

You can edit, replace or remove any tab part or add personal notes – all changes will be seen only by you.

Personal tabs can be accessed anytime from any device, even offline.
Learn more »
Give kudos to tab author, rate the tab!
1 2 3 4 5
comments
print report bad tab
guest
Wanna post a correction for this tab? Suggest correction