Oops, an error
Loading. Please wait.

Dark Light solo bass

version 2
version 2

Solo

Interactive

9,940 views 21 this week
1 commentread comment
1 2 3 4 5
x 9
add to favorites
×
Save as Personal and add changes to this tab that will be seen only by you. Learn more ›
×
You can save this tab as Personal to edit and correct it or add notes. All changes will be seen only by you. Learn more »
launch autoscroll
font size
0
reset
guitar tuner
edit
Autoscroll
slow
fast
+/-
esc
set tempo
stop
Author
This is played on a 6-string but it doesnt matter too much, myearshurt put a very 
helpful tab of this up
but I think it's a little confused,here's my version

This is what is played from 3:40-5:10 and includes nearly all the variations

G-------3-3-3/5----------------------------------------------|
D----3h5-5-------1-1-3---------------------------------------|
A---3------------------1-1-3-1h3-1---------------------------|
E----------------------------------4-4--4-3-3-3--3-3/11-10---|

G------3-8-5-33-5-33-5-3h5-3---7-4-4-4-4/0------------------|
D---3h5-5--------------------6--------------3-3/6-5---------|
A--3--------------------------------------------------------|
E-----------------------------------------------------------|

G------3-3h5---------3-3-3-5-3h5-3-------------------4/8-7--|
D---3h5-5----1-1-1-3----------------------------------------|
A--3--------------------------------1---1---1---1-----------|
E-----------------------------------------------------------|

G------3-3h5---------3-3-3-5-3h5-3--4-4-4-4/7-7h10-8--------|
D---3h5-5----1-1-1-3----------------------------------------|
A--3--------------------------------------------------------|
E-----------------------------------------------------------|

G------3-3-3/5-------------------------------------8-7------|
D---3h5-5------1-1-1-3--------------------------------------|
A--3-------------------1-1-1-3-1h3-1------------------------|
E------------------------------------4-4-4-3-3-3-3----------|

G------3-3-3/5------------------------7-7-7-7/4-4/7-7/8-10--8-10-8-|
D---3h5-5------1-1-1-3---------------------------------------------|
A--3-------------------1-1-1-3-1h3-1-------------------------------|
E------------------------------------------------------------------|

G------3-3-3/5-----------------------------------------3-3h5-|
D---3h5-5------1-1-1-3------------------------------3h5-5----|
A--3-------------------1-1-1-3-1h3-1---------3-3-3-2---------|
E------------------------------------4-4-4-3-----------------|

G-----------------------------------------------------------|
D-1-1-1/3---------------------------------------------------|
A---------1-1-1-3-1-1-1-1h3-1-------------------------------|
E-----------------------------4-4-3-4-3-3/11-10-------------|

            
            
Suggest correction
Creating personal tab
Creating personal tab
You can edit any tab online and save it as your Personal.

You can edit, replace or remove any tab part or add personal notes – all changes will be seen only by you.

Personal tabs can be accessed anytime from any device, even offline.
Learn more »
comments
print report bad tab
1 comment total.
+2 reply
AaronSinclair 31 Sep 27, 2013 08:15 AM

Didn't he use a 6 string bass on this song?

guest
You may want to rate the tab now too:
select rating
Wanna post a correction for this tab? Suggest correction