Oops, an error
Loading. Please wait.

Going Inside chords

version 1
version 1

Whole song

83,293 views 93 this week
3 commentsread comments
1 2 3 4 5
x 35
add to favorites
×
Save as Personal and add changes to this tab that will be seen only by you. Learn more ›
×
You can save this tab as Personal to edit and correct it or add notes. All changes will be seen only by you. Learn more »
launch autoscroll
font size
0
reset
transpose
0
reset
display chords
guitar tuner
edit
Autoscroll
slow
fast
+/-
esc
set tempo
stop
Author
Unregistered
Strumming
There is no strumming pattern for this song yet. and get +5 IQ
[Intro]

Gm C (D# C)

1° Guitar: (Distorted) Or Maybe John's Voice.

2° Guitar:
                            
     Gm           C          D#          C            D#          C
E|---3----3---|---3----3---|-------------------------|------------------------|
B|---3----3---|---5----5---|-------------------------|------------------------|
G|---3----3---|---5----5---|-----10-------------7----|-----10-------------7---|
D|---5----5---|---5----5---|--8------8-------5-----5-|--8------8-------5-----5|
A|---5----5---|---3----3---|6-------------3----------|6-------------3---------|
E|---3----3---|---X----X---|-------------------------|------------------------|


[Verse 1]

Gm                          F
You don't throw your life away
C       Gm
Going inside
Gm                  F
You get to know who watching you
C          Gm
And you decide who resides
Gm      F
In your body
C
Where you're slow
Gm
Where you go, doesn't matter
Gm
Cos there will come a time
F                 C         Gm
When time goes out the window
Bb                    F
And you'll learn to drive out of focus
Cm          Gm
I'm you
Bb         F
And if anything unfolds,
Cm            Eb
It's supposed to

Ooo


[Verse 2]

Gm                   F
You don't throw your time away
C        Gm
Sitting still
Gm                F
I'm in a chain of memories
C         Gm
It's my will
Gm                  F
And I had to consult some figures
C          Gm
Of the past
Gm           F
And I know someone after me
C              Gm
Will go right back
Bb      F
I'm not telling
Cm     Gm
A view
Bb            F
I've got this night
Cm       Eb
To unglue
Bb             F      Cm     Gm
I'll loot this spite away
Bb                      F
By doing things there's no reason
Cm     Eb
To do


[Outro]

E|-1--1--1---1--1--1---3--3--3--3--3--3-|----------------------------|
B|-3--3--3---1--1--1---5--5--5--5--5--5-|----------------------------|
G|-3--3--3---2--2--2---5--5--5--5--5--5-|-----10-------------7-------|
D|-3--3--3---3--3--3---5--5--5--5--5--5-|--8------8-------5-----5----|
A|-1--1--1---3--3--3---3--3--3--3--3--3-|6-------------3-------------|
e|-----------1--1--1--------------------|----------------------------|


E|-1-1-1-1-1-|----------------------------|(x2) |--3-3--|
B|-1-1-1-1-1-|----------------------------|     |--3-3--|
G|-2-2-2-2-2-|-----10-------------7-------|     |--3-3--|
D|-3-3-3-3-3-|--8------8-------5-----5----|     |--5-5--|
A|-3-3-3-3-3-|6-------------3-------------|     |--5-5--|
e|-1-1-1-1-1-|----------------------------|     |--3-3--|

End On Gm


Chords:

  Gm  C   F   Bb  Eb  Cm
E|-3-|-3-|-1-|-1-|-6-|-3-|
B|-3-|-5-|-1-|-3-|-8-|-4-|
G|-3-|-5-|-2-|-3-|-8-|-5-|
D|-5-|-5-|-3-|-3-|-8-|-5-|
A|-5-|-3-|-3-|-1-|-6-|-3-|
e|-3-|-X-|-1-|-X-|-X-|-X-|



************************************

| x dead note

************************************

            
            
Suggest correction
Creating personal tab
Creating personal tab
You can edit any tab online and save it as your Personal.

You can edit, replace or remove any tab part or add personal notes – all changes will be seen only by you.

Personal tabs can be accessed anytime from any device, even offline.
Learn more »
comments
print report bad tab
3 comments total.
+5 reply
Cyberbob 30 Apr 24, 2008 10:35 AM

Frusciante plays the riff like this:

E|---3----3---|---3----3---|-------------------------|------------------------|
B|---3----3---|---5----5---|-----6--------------3----|-----6--------------3---|
G|---3----3---|---5----5---|-------------------------|------------------------|
D|---5----5---|---5----5---|--8-----8--------5-----5-|--8-----8--------5-----5|
A|---5----5---|---3----3---|6-------------3----------|6-------------3---------|
E|---3----3---|---X----X---|-------------------------|------------------------|

Same thing essentially, but it involves a little less stretching.

Also verses should be: Gm - F - C - Eb, not Gm - F - C - Gm

Otherwise, a good tab

0 reply
duja5 10 Feb 28, 2014 10:50 AM

What Cyberbob said.
Or try playing D#/Ebmaj7 instead of Eb.

-1 reply
hyena 10 Jan 20, 2014 12:09 AM

I believe the Original posted Tab as good, and correct.

guest
Wanna post a correction for this tab? Suggest correction