Oops, an error
Loading. Please wait.

How Deep Is Your Love tab

version 2
version 2

Whole song

Interactive

69,141 views 99 this week
9 commentsread comments
1 2 3 4 5
x 22
add to favorites
×
Save as Personal and add changes to this tab that will be seen only by you. Learn more ›
×
You can save this tab as Personal to edit and correct it or add notes. All changes will be seen only by you. Learn more »
launch autoscroll
font size
0
reset
how to read this tab
guitar tuner
edit
Autoscroll
slow
fast
+/-
esc
set tempo
stop
Author
-------------------------------------------------------------------------------
"How Deep is Your Love"
As performed by John Frusciante
Written by The Bee Gees
-------------------------------------------------------------------------------
Tabbed by: jake987722
Email: jake987722@hotmail.com

Alright, I was looking over some of the tabs/chords for this song and I noticed
that, although a couple were pretty close, there was a still a few chords that
were off. So I painstakingly tabbed it out myself, using Youtube videos of 5
separate performances as references to make sure I was playing the exact same
voicings as John. The result is, I feel, at least the most accurate transcription
on the Web, although  realistically I can't 100% guarantee it note-for-note.

The tune is in standard tuning, in the key of Eb. As noted by another transcriber,
John plays the vast majority of the notes on the low E string with his thumb. I
did not include the strumming patterns in this tab (it's not complicated), I only
included the chord voicings/names and lyrics.

Tuning: standard


[Intro] (x2)    

"aaahhhhhhh......"

   Eb    Ebmaj7  Abmaj7 Bbsus4
e|---------------3----------------------------|
B|-8-----8-------4----------------------------|
G|-8-----7-------5------8---------------------|
D|-8-----8-------6------8---------------------|
A|-6-----6-------x------8---------------------|
E|---------------4------6---------------------|

  You know your eyes in the morning sun
                Eb          Gm         Fm7
e|-------------------------------------8-----|
B|--------------8----------------------9-----|
G|--------------8-----------3----------8-----|
D|--------------8-----------5----------x-----|
A|--------------6-----------5----------8-----|
E|--------------------------3----------------|

  I feel you touch  me in the pouring rain
  Gsus4           Fm7         G7          Bbsus4
e|----------------8----------------------------|
B|----------------9----------------------------|
G|5---------------8-----------10----------8----|
D|5---------------x-----------9-----------8----|
A|5---------------8-----------10----------8----|
E|3---------------------------------------6----|

  And the mo-ment that you wander far  from me
            EB             Gm        Cm
e|----------------------------------------------|
B|----------8--------------3---------4----------|
G|----------8--------------3---------5----------|
D|----------8--------------5---------5----------|
A|----------6--------------5---------3----------|
E|-------------------------3--------------------|

  I wanna feel you in my arms again
          Fm                       Bsus4
e|---------------------------------------|
B|---------------------------------4-----|
G|--------1------------------------3-----|
D|--------3------------------------3-----|
A|--------3------------------------1-----|
E|--------1------------------------------|

  And you come to me on a su-mmer breeze
              Ab            Gm
e|--------------------------------------|
B|--------------------------------------|
G|------------5-------------3-----------|
D|------------6-------------5-----------|
A|------------6-------------5-----------|
E|------------4-------------3-----------|

  Keep me warm in your love then you soft-ly leave
              Fm                         Dbmaj7
e|-------------------------------------------------|
B|---------------------------------------6---------|
G|------------1--------------------------5---------|
D|------------3--------------------------6---------|
A|------------3--------------------------4---------|
E|------------1------------------------------------|

  And it's me you need to show   How deep is your love?
           Gm                  Bbsus4
e|----------------------------------|
B|----------------------------------|
G|---------3-------------------8----|
D|---------5-------------------8----|
A|---------5-------------------8----|
E|---------3-------------------6----|

    Is your love, how deep is your love?
  Eb                      Ebmaj7
e|-----------------------------------------|
B|8-----------------------8----------------|
G|8-----------------------7----------------|
D|8-----------------------8----------------|
A|6-----------------------6----------------|
E|-----------------------------------------|

  I really need to learn
  Abmaj7                Abdim
e|3---------------------4------------|
B|4---------------------6------------|
G|5---------------------4------------|
D|6---------------------x------------|
A|x---------------------x------------|
E|4---------------------4------------|

  'Cause we're living in a world of fools
               Eb                        Bbm7
e|-------------6-------------------------6-------------|
B|-------------8-------------------------6-------------|
G|-------------8-------------------------6-------------|
D|-------------8-------------------------6-------------|
A|-------------6-------------------------4-------------|
E|-----------------------------------------------------|

  Breaking us down
              C7
e|------------6----------------------|
B|------------5----------------------|
G|------------5----------------------|
D|------------5----------------------|
A|------------3----------------------|
E|-----------------------------------|

  When they all should let us be
                                Gm Fm
e|------------------------------------|
B|------------------------------3--1--|
G|------------------------------3--1--|
D|------------------------------5--3--|
A|------------------------------5--3--|
E|------------------------------3--1--|
(Note: for some performances, John replaces these two chords with
a single Fm chord: 4656xx )

  We belong to you and me
           Abm
e|---------4--------------------------|
B|---------4--------------------------|
G|---------4--------------------------|
D|---------6--------------------------|
A|---------6--------------------------|
E|------------------------------------|

      na na naaaa na na            aaahhhhhhh
  Eb        Gm         Bbsus4
e|---------------------------|
B|8--------------------------|
G|8---------3----------8-----|
D|8---------5----------8-----|
A|6---------5----------8-----|
E|----------3----------6-----|

  How deep is your love, how deep is your love
      Eb                         Ebmaj7
e|------------------------------------------------|
B|----8--------------------------8----------------|
G|----8--------------------------7----------------|
D|----8--------------------------8----------------|
A|----6--------------------------6----------------|
E|------------------------------------------------|

  I really need to learn
  Abmaj7                Abdim
e|3---------------------4------------|
B|4---------------------6------------|
G|5---------------------4------------|
D|6---------------------x------------|
A|x---------------------x------------|
E|4---------------------4------------|

  'Cause we're living in a world of fools
               Eb                        Bbm7
e|-------------6-------------------------6-------------|
B|-------------8-------------------------6-------------|
G|-------------8-------------------------6-------------|
D|-------------8-------------------------6-------------|
A|-------------6-------------------------4-------------|
E|-----------------------------------------------------|

  Breaking us down
              C7
e|------------6----------------------|
B|------------5----------------------|
G|------------5----------------------|
D|------------5----------------------|
A|------------3----------------------|
E|-----------------------------------|

  When they all should let us be
                                Gm Fm
e|------------------------------------|
B|------------------------------3--1--|
G|------------------------------3--1--|
D|------------------------------5--3--|
A|------------------------------5--3--|
E|------------------------------3--1--|
(Note: for some performances, John replaces these two chords with
a single Fm chord: 4656xx )

  We belong to you and me
           Abm
e|---------4--------------------------|
B|---------4--------------------------|
G|---------4--------------------------|
D|---------6--------------------------|
A|---------6--------------------------|
E|------------------------------------|

      na na naaaa na na         aaahhhhhhh
  Eb        Gm         Bbsus4         Eb
e|--------------------------------------------|
B|8-----------------------------------8-------|
G|8---------3----------8--------------8-------|
D|8---------5----------8--------------8-------|
A|6---------5----------8--------------6-------|
E|----------3----------6----------------------|



************************************

| x  Dead note

************************************

            
            
Suggest correction
Creating personal tab
Creating personal tab
You can edit any tab online and save it as your Personal.

You can edit, replace or remove any tab part or add personal notes – all changes will be seen only by you.

Personal tabs can be accessed anytime from any device, even offline.
Learn more »
comments
print report bad tab
9 comments total. Showing first comments.
0 reply
Parreco 61 Oct 19, 2007 01:16 PM

Breaking us down
C7
------------6----------------------|
------------5----------------------|
------------5----------------------|
------------5----------------------|
-----------------------------------|
-----------------------------------|

is actualy

------------6----------------------|
------------5----------------------|
------------5----------------------|
------------5----------------------|
------------3----------------------|
-----------------------------------|

http://www.youtube.com/watch?v=hvG6bYcHrIM 1:25

0 reply
jake987722 50 Oct 20, 2007 03:07 PM

So it is! My bad, thanks for the correction.

+1 reply
Cosmik Debris7 10 May 21, 2008 01:19 PM

this is much better than they persons who has 10000 more 5 ratings

guest
You may want to rate the tab now too:
select rating
Wanna post a correction for this tab? Suggest correction