Oops, an error
Loading. Please wait.

Invisible Moment tab

version 2
version 2

Whole song

73 views 1 this week
no commentswrite comment
1 2 3 4 5
1 last vote to show rating
add to favorites
×
Save as Personal and add changes to this tab that will be seen only by you. Learn more ›
×
You can save this tab as Personal to edit and correct it or add notes. All changes will be seen only by you. Learn more »
launch autoscroll
font size
0
reset
how to read this tab
guitar tuner
edit
Autoscroll
slow
fast
+/-
esc
set tempo
stop
Author
Difficulty
Artist: John Frusciante
Album: To Record Only Water for 10 Days
Song: Invisible Moment


[Intro]

e|---------------------------------------------------------------------------|
B|-----------1--------------0-----------------1---------------0--------------|
G|----2--2-----2-----2--2-----2--------2--2-----2------2--2-----2------------|
D|---------------------------------------------------------------------------|
A|-0-------------------------------0-----------------------------------------|
E|-----------------3-------------------------------3-------------------------|


[Verse]

e|---------------------------------------------------------------------------|
B|---------------------------------------------------------------------------|
G|---------5---------------------------4-------------------------------------|
D|---------7---------------------------5-------------------------------------|
A|---------------------------------------------------------------------------|
E|-5-------------------3-----------------------------------------------------|
   Extra time when you think it's all over

e|---------------------------------------------------------------------------|
B|---------------------------------------------------------------------------|
G|---------5----------------------------------4------------------------------|
D|---------7----------------------------------5------------------------------|
A|---------------------------------------------------------------------------|
E|-5-------------------------------3-----------------------------------------|
   Live a life when you've rolled over and died.

e|---------------------------------------------------------------------------|
B|---------------------------------------------------------------------------|
G|-----------------5---------------------4-------------5--------------4h5p4--|
D|-----------------7---------------------5-------------7---------------------|
A|---------------------------------------------------------------------------|
E|-5----------------------3-----------------------5--------------3-----------|
   I don't feel the pain, I don't travel this line
  
e|---------------------------------------------------------------------------|
B|---------------------------------------------------------------------------|
G|---------5---------------------------4-------------------------------------|
D|---------7---------------------------5-------------------------------------|
A|---------------------------------------------------------------------------|
E|-5-------------------3-----------------------------------------------------|
  Levitate, feel the ground get closer.

e|---------------------------------------------------------------------------|
B|---------------------------------------------------------------------------|
G|---------5----------------------------------4------------------------------|
D|---------7----------------------------------5------------------------------|
A|---------------------------------------------------------------------------|
E|-5-------------------------------3-----------------------------------------|
   Ecstasy made every step a mile.

e|---------------------------------------------------------------------------|
B|---------------------------------------------------------------------------|
G|-----------------5---------------------4-------------5--------------4p2----|
D|-----------------7---------------------5-------------7---------------------|
A|---------------------------------------------------------------------------|
E|-5----------------------3-----------------------5--------------3-----------|
   When it becomes waste, why hold on for dear life?


[Chorus]
 
e|---------------------------------------------------------------------------|
B|---------------------------------------------------------------------------|
G|---2--2---------4--4-----------5---5-5-5-5-5-5-5---------------------------|
D|---3--3---------5--5-----------7---7-7-7-7-7-7-7---------------------------|
A|---3--3---------5--5-----------7---7-7-7-7-7-7-7---------------------------|
E|---1--1---------3--3-----------5---5-5-5-5-5-5-5---------------------------|
          White pain in the blue white break up,            

e|---------------------------------------------------------------------------|
B|---------------------------------------------------------------------------|
G|---2--2------4--4------5---5-5-5-5-5-5-5-----------------------------------|
D|---3--3------5--5------7---7-7-7-7-7-7-7-----------------------------------|
A|---3--3------5--5------7---7-7-7-7-7-7-7-----------------------------------|
E|---1--1------3--3------5---5-5-5-5-5-5-5-----------------------------------|
           All paths divide.
         
e|---------------------------------------------------------------------------|
B|---------------------------------------------------------------------------|
G|---2--2---------4--4-------5---5-5-5-5-5-5-5-------------------------------|
D|---3--3---------5--5-------7---7-7-7-7-7-7-7-------------------------------|
A|---3--3---------5--5-------7---7-7-7-7-7-7-7-------------------------------|
E|---1--1---------3--3-------5---5-5-5-5-5-5-5-------------------------------|
          Life has a way of opening up  

       

e|---------------------------------------------------------------------------|
B|---------------------------------------------------------------------------|
G|--------2--2------4--4----------1------------------------------------------|
D|--------3--3------5--5----------2------------------------------------------|
A|--------3--3------5--5----------2------------------------------------------|
E|--------1--1------3--3----------0------------------------------------------|


[Verse 2]

(Same as verse 1, but with slightly varied pull offs)

All names travel with their owner
Tho' they've no space, they move all around
I see invisible moment in every town
Every cry is a separate emotion
Happenings are planned
And then they arrive
They go on with or without you there


[Chorus]

White pain in the blue wide break up
All paths divide.
Life has a way of opening up

White pain in the blue wide break up
All paths divide.
Life has a way of opening up.


[Outro]

e|------------|
B|------------|
G|-5----------|
D|-7----------|
A|-7----------|
E|-5----------|


************************************
| h   Hammer-on
| p   Pull-off
************************************

            
            
Suggest correction
Creating personal tab
Creating personal tab
You can edit any tab online and save it as your Personal.

You can edit, replace or remove any tab part or add personal notes – all changes will be seen only by you.

Personal tabs can be accessed anytime from any device, even offline.
Learn more »
Give kudos to tab author, rate the tab!
1 2 3 4 5
comments
print report bad tab
guest
You may want to rate the tab now too:
select rating
Wanna post a correction for this tab? Suggest correction