Oops, an error
Loading. Please wait.

Walls tab

version 1
version 1

Whole song

1,224 views 1 this week
4 commentsread comments
1 2 3 4 5
x 5
add to favorites
×
Save as Personal and add changes to this tab that will be seen only by you. Learn more ›
×
You can save this tab as Personal to edit and correct it or add notes. All changes will be seen only by you. Learn more »
launch autoscroll
font size
0
reset
how to read this tab
guitar tuner
edit
Autoscroll
slow
fast
+/-
esc
set tempo
stop
-----------------------------------------------------------------------------
                             Walls - John Frusciante
-----------------------------------------------------------------------------
Artist: John Frusciante and Josh Klingoffer
Album: Sphere In The Heart Of Silence
Tabbed by: Sozes Flying V

Tuning: Standard

First off, i don't know what kind of instrument this is played on. But with heavy reverb 
sounds pretty accurate to me.
If it sounds different to you, that's what comments are for.


e|--------------------------------------------------------------------------|
B|--------------------------------------------------------------------------|
G|--------------------------------------------------------------------------|
D|--------------------------------------------------------------------------|
A|-------------7-------5-----------12~~~~~~---------------------------------|
E|--------------------------------------------------------------------------|

Pretty simple. Repeats throughout the song. Happy picking!

Stuck in the lyrics too:

Rain on your mind
If I'm so inclined
It's left you all
At there photo stall
One blast, my fast

So you wanna know, where youre gonna go?
So you wanna know, where youre gonna go

And all you want
To be is a God
You're safe as that
My friend go back
Of time, time

So you wanna know, where you're gonna go?
So you wanna know, where you're gonna go?
So you wanna know, where you're gonna go?
So you wanna know, where you're gonna go?

There's only death
And I say that yet
This life is a frontier of pain
Disgust, disgust

So you wanna know, where youre gonna go?
(Walls)
So you wanna know, where youre gonna go
(Walls)
So you wanna know, where youre gonna go?
(Walls)
So you wanna know, where youre gonna go?
(Walls)

Once I'm cornered, I can't center
I will go beyond
Plans to kill me seem to falter
I am not my own
Eyes can't see me or the others
You do things our way
Extra meaning, truth won't free them
Not worth a thing I say
Hey

            
            
Suggest correction
Creating personal tab
Creating personal tab
You can edit any tab online and save it as your Personal.

You can edit, replace or remove any tab part or add personal notes – all changes will be seen only by you.

Personal tabs can be accessed anytime from any device, even offline.
Learn more »
comments
print report bad tab
4 comments total. Showing first comments.
0 reply
Sziel 32 Jan 31, 2015 03:41 AM, edited at 09:21 am

I've uploaded a better version check it out on my profile.
Here's a part of it
D|---------------7-7-7-7-7-7------|
A|------------------------------------|
E|----2-2-2-2---------------------- |

0 reply
Sziel 32 Feb 06, 2015 06:07 AM, edited at 11:12 am

better version check it out on my profile.
Here's a part of it go let me know what you think
D|---------------7-7-7-7-7-7------|
A|---------------------------------|
E|----2-2-2-2---------------------- |

+1 reply
froosh4life 10 Feb 06, 2015 06:08 AM, edited at 11:35 am

nope

guest
You may want to rate the tab now too:
select rating
Wanna post a correction for this tab? Suggest correction