Oops, an error
Loading. Please wait.

Wednesdays Song chords

version 3
version 3

Whole song

21,243 views 66 this week
6 commentsread comments
1 2 3 4 5
x 10
add to favorites
×
Save as Personal and add changes to this tab that will be seen only by you. Learn more ›
×
You can save this tab as Personal to edit and correct it or add notes. All changes will be seen only by you. Learn more »
launch autoscroll
font size
0
reset
transpose
0
reset
simplify chords
display chords
guitar tuner
edit
Autoscroll
slow
fast
+/-
esc
set tempo
stop
Author
Difficulty
Strumming
There is no strumming pattern for this song yet. and get +5 IQ
[Intro]

e|----------4------8------3------3---|
B|---4------3------9------4------4---|
G|---5------5------7------5------2---|
D|---5------3------x------5------3---|
A|---3-------------8------3----------|
E|-----------------------------------|
     Cm   Fm6   Fm6 var.  Cm     F9

[Verse 1]

     Cm           Fm6           Fm6 var.
You'll make it through the day
              Cm              F9
See things another way and behold.

[Chorus]

e|---4-------------4------4------3------3------3---|
B|---4------8------6------6------4------4------4---|
G|---5------8------5------7------5------4------2---|
D|---6------8------6------6------5------3------3---|
A|---6------6--------------------3-----------------|
E|---4---------------------------------------------|
    G#     D#   C#maj7 Ddim    Cm    F9b5     F9

   G#         D#            C#maj7
Listen to Wednesday's song
  G#             D#          C#maj7
This night you go home alone
Ddim            Cm 
How the sane go upright
 F9b5              F9
How do you look another night.

[Verse 2]

  Cm          Fm6        Fm6 var.
You're back under my hat
          Cm                     F9
And even knowing that you're a whore.

[Chorus 2]

  G#      D#             C#maj7
Nothing ever meant more
  G#                D#             C#maj7
Than switching rooms through a door
Ddim      Cm/G <---just add a G on your E string if you feel like it
Out into another one
  F9b5           F9
Frames flash inward.

[Chorus 2]

e|---4------4-------------1---|
B|---6------4------8------1---|
G|---6------5------8------2---|
D|---6------6------8------3---|
A|---4------6------6------3---|
E|----------4-------------1---|
    C#     G#      D#    Fm

          C#
And you know
 G#      D#         Fm
I have seen the world
      C#
You know
   G#          D#        Fm       C#
I've drowned in my thoughts a lot
   G#       D#         Fm       C#
Deep in rains that swirl above

[Bridge]

    C#        G#     D#     Fm
I canceled heaven I concede

e|--------8----8----8---x-8--8--8------8------8------8--8------3-3-3--3---|
B|---6-6--6-6--6-6--6-6-x-9--8--9----8-9----8-9----8-9--9-----4--4-4--4---|
G|---6-6--6--6-6--6-6---x-10-10-10-----10-10--10-----10-10---4---4-4--2---|
D|---8-8--8--8-8--8-8---x-10-10-10-10--10-----10-10--10-10--3----3-3--3---|
A|---8-8----------------x-8--8--8------8------8------8--8-----------------|
E|------------------------------------------------------------------------|
(This is obviously not exactly how he plays it, it's just here to help you understand
Listen to the song to hear the exact strumming pattern)
e|---3-3--3-33333---|
B|---4-4--3-44444---|
G|---2-2--2-22222---|
D|---3-3--3-33333---|
A|------------------|
E|------------------|

[Verse 3]

Cm      Fm6       Fm6 var.
Another word to say
          Cm              F9
When everything's O.K you go down.
  Cm      Fm6       Fm6 var.
And pulling up the slack
           Cm
And never coming back
     F9
An alarm.

[Chorus B]

  G#         D#     C#maj7
Ringing to set the sun
 G#       D#  C#maj7
No one ever becomes
 Ddim                  Cm/G 
What others thought they should've been
 F9b5               F9
Inside they're what they can see, You know.
 
    C#   G#      D#        Fm
You know I do miss this girl
  C#    G#      D#    Fm   C#
To show I am in a swirl of sun
G#      D#      Fm
Being what I've got
    C#
The joy

[Bridge]

e|---8---|
B|---6---|
G|---6---|
D|---8---|
A|---8---|
E|--(6)-|
   Bbmadd9


     C#   G#      D#     Bbmadd9
I canceled heaven I concede
     C#   G#      D#     Bbmadd9
Everything that I believe
   C#   G#      D#       Bbmadd9
I canceled heaven I concede

[Outro]

e|---8---|
B|---9---|
G|---10--|
D|---10--|
A|---8---|
E|-------|
    Fm



************************************

| x    Dead note
| (n)  Ghost note

************************************

            
            
Suggest correction
Creating personal tab
Creating personal tab
You can edit any tab online and save it as your Personal.

You can edit, replace or remove any tab part or add personal notes – all changes will be seen only by you.

Personal tabs can be accessed anytime from any device, even offline.
Learn more »
comments
print report bad tab
6 comments total. Showing first comments.
0 reply
matias_vgf 10 Jul 18, 2013 05:35 AM

Fdim+5? Isn't a variation of Fm6?

+1 reply
parrodi 119 Mar 11, 2014 09:29 AM

Hey! That is absolutely true, I'm not sure what i has thinking. haha! Thanks for pointing that out!

0 reply
PavelD 106 Apr 26, 2014 09:48 AM

F7sus2? Dafaq this possible?

guest
You may want to rate the tab now too:
select rating
Wanna post a correction for this tab? Suggest correction