Oops, an error
Loading. Please wait.

Carrie Ends The Call tab

91 views 1 this week
no commentswrite comment
1 2 3 4 5
3 more votes to show rating
add to favorites
×
Save as Personal and add changes to this tab that will be seen only by you. Learn more ›
×
You can save this tab as Personal to edit and correct it or add notes. All changes will be seen only by you. Learn more »
launch autoscroll
font size
0
reset
how to read this tab
guitar tuner
edit
Autoscroll
slow
fast
+/-
esc
set tempo
stop
Capo 4th fret


[Intro]
           
e|----10--x--------|
B|----10--x--10----|
G|-----------11----|
D|----0---x--------| x4
A|-----------0-----|
E|-----------------|


[Verse 1]

      D  G   D/A G   D/G#  D/G
e|-------------------------------|
B|-------------------------------|
G|----2--0-------0---------------|
D|----0--0----4--0----4-----4----| x6
A|------------5-------5-----5----|
E|--------------------4-----3----|

D  G   D/A  G   D/G#  D/G
D  G   D/A  G   D/G#  D/G


D    G           D/A  G   
  So long living in between
    D/G#              D/G
  A tiny screen and a slightly larger screen
D     G         D/A    G   
  The loneliest way to stay alone
D/G#  D/G


D      G           D/A   G   
  Your face frozen up in light
       D/G#               D/G
  From milder climate and wilder times
D   G              D/A       G   
  I can’t watch it glitching anymore 
D/G#  D/G


[Interlude]

e|----10--x--------|
B|----10--x--10----|
G|-----------11----|
D|----0---x--------| x4
A|-----------0-----|
E|-----------------|


[Verse 2]

      D  G   D/A G   D/G#  D/G
e|-------------------------------|
B|-------------------------------|
G|----2--0-------0---------------|
D|----0--0----4--0----4-----4----| x4
A|------------5-------5-----5----|
E|--------------------4-----3----|

D    G           D/A  G   
  I know why you had to go
     D/G#               D/G
  An ocean asked you to play another show
D     G          D/A        G   
  The mountains arrange for you to run
D/G#  D/G


D    G             D/A     G   
  I knew you would do your best
     D/G#                   D/G
  In vacuum tubes where the feedbacks nest
D   G   D/A    G   
            To make me smile
D/G#  D/G


[Bridge]

      D              Em    A5
e|------------------------------|
B|-------3------3---------------|
G|----2--2---2--2----0-----2----|
D|----0--0---0--0----2-----2----|
A|-------------------2-----0----|
E|------------------------------|

         D
  But it seems impossible now
        Em                      A5
  From another December we will barely remember


      D      D/A     
e|----10--x--------|
B|----10--x--10----|
G|-----------11----|
D|----0---x--------| x4
A|-----------0-----|
E|-----------------|

       D        D/A     
  When summer arrives


[Outro]

      D  G   D/A G   D/G#  D/G
e|-------------------------------|
B|-------------------------------|
G|----2--0-------0---------------|
D|----0--0----4--0----4-----4----| x4
A|------------5-------5-----5----|
E|--------------------4-----3----|

D  G   D/A  G
D/G#  D/G
D    G           D/A  G   
  So long living in between
D/G#  D/G

            
            
Suggest correction
Creating personal tab
Creating personal tab
You can edit any tab online and save it as your Personal.

You can edit, replace or remove any tab part or add personal notes – all changes will be seen only by you.

Personal tabs can be accessed anytime from any device, even offline.
Learn more »
Give kudos to tab author, rate the tab!
1 2 3 4 5
comments
print report bad tab
guest
You may want to rate the tab now too:
select rating
Wanna post a correction for this tab? Suggest correction