Oops, an error
Loading. Please wait.

Heart Of The Continent tab

version 2
version 2

Whole song

  • Tabbed all parts, corrected chords and chord timin... Show more
196 views 3 this week
no commentswrite comment
1 2 3 4 5
2 more votes to show rating
add to favorites
×
Save as Personal and add changes to this tab that will be seen only by you. Learn more ›
×
You can save this tab as Personal to edit and correct it or add notes. All changes will be seen only by you. Learn more »
launch autoscroll
font size
0
reset
how to read this tab
guitar tuner
edit
Autoscroll
slow
fast
+/-
esc
set tempo
stop
About this tab version
Tabbed all parts, corrected chords and chord timing, identified chords above tab, improved formatting. Was this info helpful? Yes No
Capo 4th fret


[Intro]

     G
e|---------------------------------------------------|
B|---------------------------------------------------|
G|------0-----0-----0-----0-----0-----0-----0-----0--|
D|------0-----0-----0-----0-----0-----0-----0-----0--| x2
A|------------------0h2---------0h2------------------|
E|---3-----3-----3-----3-----3-----3-----3-----3-----|
     ↓  ↑  ↓  ↑  ↓  ↑  ↓  ↑  ↓  ↑  ↓  ↑  ↓  ↑  ↓  ↑      
                                                                                                      
↓↑ = strumming pattern throughout
h  = hammer-on


[Verse 1]

     G                                                  C
e|---------------------------------------------------|---------------------------------------------------|
B|---------------------------------------------------|---------------------------------------------------|
G|------0-----0-----0-----0-----0-----0-----0-----0--|-----0-----0-----0-----0-----0-----0-----0-----0---|
D|------0-----0-----0-----0-----0-----0-----0-----0--|-----2-----2-----2-----2-----2-----2-----2-----2---|
A|---------------------------------------------------|--3-----3-----3-----3-----3-----3-----3-----3------|
E|---3-----3-----3-----3-----3-----3-----3-----3-----|---------------------------------------------------|

 The north wind  sinks       the   fence around   a     lot   full  of debris,                 near the

     G                                                  C
e|---------------------------------------------------|---------------------------------------------------|
B|---------------------------------------------------|---------------------------------------------------|
G|------0-----0-----0-----0-----0-----0-----0-----0--|-----0-----0-----0-----0-----0-----0-----0-----0---|
D|------0-----0-----0-----0-----0-----0-----0-----0--|-----2-----2-----2-----2-----2-----2-----2-----2---|
A|---------------------------------------------------|--3-----3-----3-----3-----3-----3-----3-----3------|
E|---3-----3-----3-----3-----3-----3-----3-----3-----|---------------------------------------------------|

     corner   of       Memorial            and me                                                    Where

     G                                                  C
e|---------------------------------------------------|---------------------------------------------------|
B|---------------------------------------------------|---------------------------------------------------|
G|------0-----0-----0-----0-----0-----0-----0-----0--|-----0-----0-----0-----0-----0-----0-----0-----0---|
D|------0-----0-----0-----0-----0-----0-----0-----0--|-----2-----2-----2-----2-----2-----2-----2-----2---|
A|---------------------------------------------------|--3-----3-----3-----3-----3-----3-----3-----3------|
E|---3-----3-----3-----3-----3-----3-----3-----3-----|---------------------------------------------------|

     resurrected             brick and dry--wall        lean  back  into  place                There’s a

     G                                                  C
e|---------------------------------------------------|---------------------------------------------------|
B|---------------------------------------------------|---------------------------------------------------|
G|------0-----0-----0-----0-----0-----0-----0-----0--|-----0-----0-----0-----0-----0-----0-----0-----0---|
D|------0-----0-----0-----0-----0-----0-----0-----0--|-----2-----2-----2-----2-----2-----2-----2-----2---|
A|---------------------------------------------------|--3-----3-----3-----3-----3-----3-----3-----3------|
E|---3-----3-----3-----3-----3-----3-----3-----3-----|---------------------------------------------------|
       
     terrified         reflection     of my    face                                            All  


[Pre-Chorus and Chorus 1]

    G                         G/F#                      G                         C           G/C
e|-------------------------|-------------------------|-------------------------|-------------------------|
B|-------------------------|-------------------------|-------------------------|-------------------------|
G|-----0-----0-----0-----0-|-----0-----0-----0-----0-|-----0-----0-----0-----0-|-----0-----0-----0-----0-|
D|-----0-----0-----0-----0-|-----0-----0-----0-----0-|-----0-----0-----0-----0-|-----0h2---2-----0-----0-|
A|-/10----10----10----10---|--9-----9-----9-----9----|--------------0-----2----|--3-----3-----3-----3----|
E|-------------------------|-------------------------|--3-----3----------------|-------------------------|

   alone at the gleaming      knife display  in the     Ar-  -my Sur-    -plus    Sales           as the
       
    C                         G                         D/F#                        
e|-------------------------|-------------------------|-------------------------|-------------------------|
B|-------------------------|-------------------------|-------------------------|-------------------------|
G|-----0-----0-----0-----0-|-----0-----0-----0-----0-|-----2-----2-----0h2---2-|-----0h2---2-----0-----0-|
D|-----2-----2-----2-----2-|-----0-----0-----0-----0-|-----0-----0-----0-----0-|-----0-----0-----0-----0-|
A|--3-----3-----3-----3----|-------------------------|-------------------------|-------------------------|
E|-------------------------|--3-----3-----3-----3----|--2-----2-----2-----2----|--2-----2-----2-----2----|

    dusk descends and my      inspiration fails

    G/B                       G/C                       G/A                       G/B         G/A
e|-------------------------|-------------------------|-------------------------|-------------------------|
B|-----3-----3-----3-----3-|-----3-----3-----3-----3-|-----3-----3-----3-----3-|-----3-----3-----3-----3-|
G|-----0-----0-----0-----0-|-----0-----0-----0-----0-|-----0-----0-----0-----0-|-----0-----0-----0-----0-|
D|-------------------------|-------------------------|-------------------------|-------------------------|
A|--2-----2-----2-----2----|--3-----3-----3-----3----|--0-----0-----0-----0----|--2-----2-----0-----0----|
E|-------------------------|-------------------------|-------------------------|-------------------------|

    Ghost   -   filled        dis-       -count         par-       -kas,          slee-      -ping  bags

    Em                                                   D/F#                      
e|-------------------------|-------------------------|-------------------------|-------------------------|
B|-------------------------|-------------------------|-------------------------|-------------------------|
G|-----0-----0-----0-----0-|-----0-----0-----0-----0-|-----2-----2-----0h2---2-|-----0h2---2-----0-----0-|
D|-----2-----2-----2-----2-|-----2-----2-----2-----2-|-----0-----0-----0-----0-|-----0-----0-----0-----0-|
A|-------------------------|-------------------------|-------------------------|-------------------------|
E|--0-----0-----0-----0----|--0-----0-----0-----0----|--2-----2-----2-----2----|--2-----2-----2-----2----|

                                          Peer at       me       from                      the crumpled dark

     G
e|---------------------------------------------------|---------------------------------------------------|
B|---------------------------------------------------|---------------------------------------------------|
G|------0-----0-----0-----0-----0-----0-----0-----0--|------0-----0-----0-----0-----0-----0-----0-----0--|
D|------0-----0-----0-----0-----0-----0-----0-----0--|------0-----0-----0-----0-----0-----0-----0-----0--| 
A|------------------0h2---------0h2------------------|------------------0h2---------0h2------------------|
E|---3-----3-----3-----3-----3-----3-----3-----3-----|---3-----3-----3-----3-----3-----3-----3-----3-----|


[Verse 2]

     G                                                  C
e|---------------------------------------------------|---------------------------------------------------|
B|---------------------------------------------------|---------------------------------------------------|
G|------0-----0-----0-----0-----0-----0-----0-----0--|-----0-----0-----0-----0-----0-----0-----0-----0---|
D|------0-----0-----0-----0-----0-----0-----0-----0--|-----2-----2-----2-----2-----2-----2-----2-----2---|
A|---------------------------------------------------|--3-----3-----3-----3-----3-----3-----3-----3------|
E|---3-----3-----3-----3-----3-----3-----3-----3-----|---------------------------------------------------|

     Inky     bruises        punched into   the       sky     by    bolts of    light,         and then

     G                                                  C
e|---------------------------------------------------|---------------------------------------------------|
B|---------------------------------------------------|---------------------------------------------------|
G|------0-----0-----0-----0-----0-----0-----0-----0--|-----0-----0-----0-----0-----0-----0-----0-----0---|
D|------0-----0-----0-----0-----0-----0-----0-----0--|-----2-----2-----2-----2-----2-----2-----2-----2---|
A|---------------------------------------------------|--3-----3-----3-----3-----3-----3-----3-----3------|
E|---3-----3-----3-----3-----3-----3-----3-----3-----|---------------------------------------------------|

     leak  a--cross    the   bo-  -dy of tonight                                                    While

     G                                                  C
e|---------------------------------------------------|---------------------------------------------------|
B|---------------------------------------------------|---------------------------------------------------|
G|------0-----0-----0-----0-----0-----0-----0-----0--|-----0-----0-----0-----0-----0-----0-----0-----0---|
D|------0-----0-----0-----0-----0-----0-----0-----0--|-----2-----2-----2-----2-----2-----2-----2-----2---|
A|---------------------------------------------------|--3-----3-----3-----3-----3-----3-----3-----3------|
E|---3-----3-----3-----3-----3-----3-----3-----3-----|---------------------------------------------------|

     rain and thun--der      drop and roll then         stop  short of a  storm,               leave the

     G                                                  C
e|---------------------------------------------------|---------------------------------------------------|
B|---------------------------------------------------|---------------------------------------------------|
G|------0-----0-----0-----0-----0-----0-----0-----0--|-----0-----0-----0-----0-----0-----0-----0-----0---|
D|------0-----0-----0-----0-----0-----0-----0-----0--|-----2-----2-----2-----2-----2-----2-----2-----2---|
A|---------------------------------------------------|--3-----3-----3-----3-----3-----3-----3-----3------|
E|---3-----3-----3-----3-----3-----3-----3-----3-----|---------------------------------------------------|

     air stuck with this  wait-  -ing to be born                                               As I


[Pre-Chorus and Chorus 2]

    G                         G/F#                      G                         C           G/C
e|-------------------------|-------------------------|-------------------------|-------------------------|
B|-------------------------|-------------------------|-------------------------|-------------------------|
G|-----0-----0-----0-----0-|-----0-----0-----0-----0-|-----0-----0-----0-----0-|-----0-----0-----0-----0-|
D|-----0-----0-----0-----0-|-----0-----0-----0-----0-|-----0-----0-----0-----0-|-----0h2---2-----0-----0-|
A|-/10----10----10----10---|--9-----9-----9-----9----|--------------0-----2----|--3-----3-----3-----3----|
E|-------------------------|-------------------------|--3-----3----------------|-------------------------|
     
    stand before   an         unresponsive              automatic      door,                     just a-

    C                         G                         D/F#                        
e|-------------------------|-------------------------|-------------------------|-------------------------|
B|-------------------------|-------------------------|-------------------------|-------------------------|
G|-----0-----0-----0-----0-|-----0-----0-----0-----0-|-----2-----2-----0h2---2-|-----0h2---2-----0-----0-|
D|-----2-----2-----2-----2-|-----0-----0-----0-----0-|-----0-----0-----0-----0-|-----0-----0-----0-----0-|
A|--3-----3-----3-----3----|-------------------------|-------------------------|-------------------------|
E|-------------------------|--3-----3-----3-----3----|--2-----2-----2-----2----|--2-----2-----2-----2----|

   -nother   door that won't  open     for      me      anymore                                       The

    G/B                       G/C                       G/A                       G/B         G/A
e|-------------------------|-------------------------|-------------------------|-------------------------|
B|-----3-----3-----3-----3-|-----3-----3-----3-----3-|-----3-----3-----3-----3-|-----3-----3-----3-----3-|
G|-----0-----0-----0-----0-|-----0-----0-----0-----0-|-----0-----0-----0-----0-|-----0-----0-----0-----0-|
D|-------------------------|-------------------------|-------------------------|-------------------------|
A|--2-----2-----2-----2----|--3-----3-----3-----3----|--0-----0-----0-----0----|--2-----2-----0-----0----|
E|-------------------------|-------------------------|-------------------------|-------------------------|

    exit                      red         gets          bright-    -er            then        blinks off

    Em                                                   D/F#                      
e|-------------------------|-------------------------|-------------------------|-------------------------|
B|-------------------------|-------------------------|-------------------------|-------------------------|
G|-----0-----0-----0-----0-|-----0-----0-----0-----0-|-----2-----2-----0h2---2-|-----0h2---2-----0-----0-|
D|-----2-----2-----2-----2-|-----2-----2-----2-----2-|-----0-----0-----0-----0-|-----0-----0-----0-----0-|
A|-------------------------|-------------------------|-------------------------|-------------------------|
E|--0-----0-----0-----0----|--0-----0-----0-----0----|--2-----2-----2-----2----|--2-----2-----2-----2----|

                                          Presses me    into                               the crumpled dark

     G
e|---------------------------------------------------|
B|---------------------------------------------------|
G|------0-----0-----0-----0-----0-----0-----0-----0--|
D|------0-----0-----0-----0-----0-----0-----0-----0--| 
A|------------------0h2---------0h2------------------|
E|---3-----3-----3-----3-----3-----3-----3-----3-----|


[Interlude]

                                                                  p = pull-off
e|------------------------------------0-----3--------|--------------------------------------------------| |
B|------3-----3-----------3-----3-----3-----0-----0--|-h1--1-----1p0---0-----0-----0-----0-----0-----0--| |
G|------0-----0-----0-----0-----0-----------------0--|--0--0-----0-----0-----0-----0-----0-----0-----0--| |
D|---------------------------------------------------|-h2-----------------------------------------------| |
A|---------------------------------------------------|-h3-----3-----3-----3-----3-----3-----3-----3-----| |
E|---3-----3-----3-----3-----3-----3-----3-----3-----|--------------------------------------------------| |
                                                                                                          |
                                                                                                          | x2
e|---------------------------------------------------|--------------------------------------------------| |
B|------0-----0-----0-----0--------------------------|--------------------------------------------------| |
G|------0-----0-----0-----0-----2-----2-----0-----0--|-----0-----0-----0-----0-----0-----0-----0-----0--| |
D|------------------------------0-----0-----0-----0--|-----2-----2-----2-----2-----2-----2-----2-----2--| |
A|---------------------------------------------------|--3-----3-----3-----3-----3-----3-----3-----3-----| |
E|---3-----3-----3-----3-----3-----3-----3-----3-----|--------------------------------------------------| |

                                                                                               There's a

[Bridge]

     Em/C#                                               C
e|---------------------------------------------------|---------------------------------------------------|
B|------5-----5-----5-----5-----5-----5-----5-----5--|------5-----5-----5-----5-----5-----5-----5-----4--|
G|------0-----0-----0-----0-----0-----0-----0-----0--|------0-----0-----0-----0-----0-----0-----0-----0--|
D|---------------------------------------------------|---------------------------------------------------|
A|---4-----4-----4-----4-----4-----4-----4-----4-----|---3-----3-----3-----3-----3-----3-----3-----3-----|
E|---------------------------------------------------|---------------------------------------------------|

     bill--board by    the highway          that says    welcome  to,                              bien-

     Cm                                                  G/B
e|---------------------------------------------------|---------------------------------------------------|
B|------4-----4-----4-----4-----4-----4-----4-----4--|------3-----3-----3-----3-----3-----3-----3-----3--|
G|------0-----0-----0-----0-----0-----0-----0-----0--|------0-----0-----0-----0-----0-----0-----0-----0--|
D|---------------------------------------------------|---------------------------------------------------|
A|---3-----3-----3-----3-----3-----3-----3-----3-----|---2-----2-----2-----2-----2-----2-----2-----2-----|
E|---------------------------------------------------|---------------------------------------------------|

     -venue      à,                            but no    sign  to show  you   when  you   go a--way

    G/A                A7
e|-------------------|-------------------------------|
B|-----3-----3-----3-|----2-----2-----2-----2-----2--|
G|-----0-----0-----0-|----0-----0-----0-----0-----0--|
D|-------------------|-------------------------------|
A|--0-----0-----0----|-0-----0-----0-----0-----0-----|
E|-------------------|-------------------------------|

                                               And our

[Chorus 3]

    G/B                       G/C                       G/A                       G/B         G/A
e|-------------------------|-------------------------|-------------------------|-------------------------|
B|-----3-----3-----3-----3-|-----3-----3-----3-----3-|-----3-----3-----3-----3-|-----3-----3-----3-----3-|
G|-----0-----0-----0-----0-|-----0-----0-----0-----0-|-----0-----0-----0-----0-|-----0-----0-----0-----0-|
D|-------------------------|-------------------------|-------------------------|-------------------------|
A|--2-----2-----2-----2----|--3-----3-----3-----3----|--0-----0-----0-----0----|0h2-----2-----0-----0----|
E|-------------------------|-------------------------|-------------------------|-------------------------|

    de-        -mo-          -li-        -tions         punc-      -tu-  -ate                          All we

    G/B                       G/C                       G/A                       G/B         G/A
e|-------------------------|-------------------------|-------------------------|-------------------------|
B|-----3-----3-----3-----3-|-----3-----3-----3-----3-|-----3-----3-----3-----3-|-----3-----3-----3-----3-|
G|-----0-----0-----0-----0-|-----0-----0-----0-----0-|-----0-----0-----0-----0-|-----0-----0-----0-----0-|
D|-------------------------|-------------------------|-------------------------|-------------------------|
A|--2-----2-----2-----2----|--3-----3-----3-----3----|--0-----0-----0-----0----|0h2-----2-----0-----0----|
E|-------------------------|-------------------------|-------------------------|-------------------------|

    mean        to            save        then          leave       too   late                         So I
 
    G/B                       G/C                       G/A                       G/B         G/A
e|-------------------------|-------------------------|-------------------------|-------------------------|
B|-----3-----3-----3-----3-|-----3-----3-----3-----3-|-----3-----3-----3-----3-|-----3-----3-----3-----3-|
G|-----0-----0-----0-----0-|-----0-----0-----0-----0-|-----0-----0-----0-----0-|-----0-----0-----0-----0-|
D|-------------------------|-------------------------|-------------------------|-------------------------|
A|--2-----2-----2-----2----|--3-----3-----3-----3----|--0-----0-----0-----0----|0h2-----2-----0-----0----|
E|-------------------------|-------------------------|-------------------------|-------------------------|

    make        my            sha-       -ky            ex-        -cla-         -ma-        -tion     mark

    Em                                                   D/F#                      
e|-------------------------|-------------------------|-------------------------|-------------------------|
B|-------------------------|-------------------------|-------------------------|-------------------------|
G|-----0-----0-----0-----0-|-----0-----0-----0-----0-|-----2-----2-----2-----2-|-----2-----2-----2-----2-|
D|-----2-----2-----2-----2-|-----2-----2-----2-----2-|-----0-----0-----0-----0-|-----0-----0-----0-----0-|
A|-------------------------|-------------------------|-------------------------|-------------------------|
E|--0-----0-----0-----0----|--0-----0-----0-----0----|--2-----2-----2-----2----|--2-----2-----2-----2----|

                                             With  a    hand-                    -ful                

    D/F#                                                G                      
e|-------------------------|-------------------------|-------------------------|-------------------------|
B|-------------------------|-------------------------|-------------------------|-------------------------|
G|-----2-----2-----0h2---2-|-----0h2---2-----2-----2-|-----0-----0-----0-----0-|-----0-----0-----0-----0-|
D|-----0-----0-----0-----0-|-----0-----0-----0-----0-|-----0-----0-----0-----0-|-----0-----0-----0-----0-|
A|-------------------------|-------------------------|-----------------0h2-----|-----0h2-----------------|
E|--2-----2-----2-----2----|--2-----0-----0-----0----|--3-----3-----3-----3----|--3-----3-----3-----3----|

    of                                    the crumpled  dark

    G                      
e|-------------------------------|
B|-------------------------------|
G|-----0-----0-----0-----0--0~---|
D|-----0-----0-----0-----0--0~---|
A|-----------------0h2------2~---|
E|--3-----3-----3-----3-----3~---|


            
            
Suggest correction
Creating personal tab
Creating personal tab
You can edit any tab online and save it as your Personal.

You can edit, replace or remove any tab part or add personal notes – all changes will be seen only by you.

Personal tabs can be accessed anytime from any device, even offline.
Learn more »
Give kudos to tab author, rate the tab!
1 2 3 4 5
comments
print report bad tab
guest
You may want to rate the tab now too:
select rating
Wanna post a correction for this tab? Suggest correction