Oops, an error
Loading. Please wait.

Winter Wheat tab

1,105 views 12 this week
no commentswrite comment
1 2 3 4 5
1 last vote to show rating
add to favorites
×
Save as Personal and add changes to this tab that will be seen only by you. Learn more ›
×
You can save this tab as Personal to edit and correct it or add notes. All changes will be seen only by you. Learn more »
launch autoscroll
font size
0
reset
how to read this tab
guitar tuner
edit
Autoscroll
slow
fast
+/-
esc
set tempo
stop
Capo 7th fret


[Verse 1]

   G                                                                 C
e|---------------------------------------------------------------|----------------------------------|
B|---------------------------------------------------------------|----------------------------------|
G|-----0-----0-----0-----0-----0-----0-----0-----0-----0-----0---|-----0-----0-----0-----0----------|
D|-----0-----0-----0-----0-----0-----0-----0-----0-----0-----0---|-----2-----2-----2-----2----------|
A|---------------------------------------------------------------|--3-----3-----3-----3-------------|
E|--3-----3-----3-----3-----3-----3-----3-----3-----3-----3------|----------------------------------|

    Woke up in a parking lot,                   air-mattresses gone flat

      Em            D/F#            G            C                         C
e|----------------|---------------|------------|-------------------------|--------------------------|
B|----------------|---------------|------------|-----------1-------------|-----------1--------------|
G|-------0-----0--|----2-----0----|----0-----0-|----0------0-----0-----0-|----0------0-----0-----0--|
D|-------2-----2--|----0-----0----|----0-----0-|----0h2----------2-----0-|----0h2----------2-----0--|
A|----------------|---------------|------------|-3------3-----3-----3----|-3------3-----3-----3-----|
E|----0-----0-----|-2-----2-------|-3-----3----|-------------------------|--------------------------|

  The sun selecting targets for the shadows to attack

    G                                                                      C
e|----------------------------------------------------------------|---------------------------------|
B|----------------------------------------------------------------|---------------------------------|
G|-----0-----0-----0-----0-----0-----0-----0-----0-----0-----0----|-----------0-----0-----0-----0---|
D|-----0-----0-----0-----0-----0-----0-----0-----0-----0-----0----|-----------2-----2-----2-----2---|
A|----------------------------------------------------------------|--------3-----3-----3-----3------|
E|--3-----3-----3-----3-----3-----3-----3-----3-----3-----3-------|---------------------------------|
   
 So make a visor with your hand,                and squint at where you're from

      Em             D/F#              G                   Asus2             
e|-----------------|-----------------|-------------------|------------------------------------------|
B|-----------------|-----------------|-------------------|------------------------------------------|
G|-------0-----0---|----2-----0------|----0-----0--------|----0-----0-----0-------------------------|
D|-------2-----2---|----0-----0------|----0-----0--------|----2-----2-----2-------------------------|
A|-----------------|-----------------|-------------------|------------------------------------------|
E|----0-----0------|-2-----2---------|-3-----3-----------|-5-----5-----5----------------------------|

    A lonely line of buildings you can block out with your thumb


[Refrain 1]

    G      G/F#                      G           G/F#   Em                        Asus2  
e|-------|------------------------|-------------------|------------------------|--------------------|
B|-------|------------------------|-------------------|------------------------|--------------------|
G|-----0-|----0-----0-----0-----0-|----0------0-------|----0-----0-----0-----0-|-----0-----0-----0--|
D|-----0-|----0-----0-----0-----0-|----0------0-----0-|----2-----2-----2-----2-|-----2-----2-----2--|
A|-------|------------------------|----0h2----2-----0-|------------------------|--------------------|
E|--3----|-2-----2-----2-----2----|--3-----3-----2----|-0-----0-----0-----0----|--5-----5-----5-----|

    Sa-----lute              the     ways                                 we      tried

    G       G/F#
e|--------|--------------------------|
B|--------|--------------------------|
G|-----0--|-----0-----0-----0-----0--|
D|-----0--|-----0-----0-----0-----0--|
A|--------|--------------------------|
E|--3-----|--2-----2-----2-----2-----|


   C        C/B      Am7      C/B       C        C/B      Am7       G   
e|------------------------------------|---------------------------|---------------------------------|
B|----1--1-----1--1-----1--1-----1--1-|----1--1-----1--1-----1--1-|---0-----------------------------|
G|----0--0-----0--0-----0--0-----0--0-|----0--0-----0--0-----0--0-|---0---0---0---0---0---0---0---0-|
D|------------------------------------|---------------------------|-------0---0---0---0---0---0---0-|
A|-3--------2--------0--------2-------|-3--------2--------0-------|---------------------------------|
E|------------------------------------|---------------------------|-3---3---3---3---3---3---3---3---|


[Verse 2]

   G                                                                 C
e|---------------------------------------------------------------|----------------------------------|
B|---------------------------------------------------------------|----------------------------------|
G|-----0-----0-----0-----0-----0-----0-----0-----0-----0-----0---|-----0-----0-----0-----0----------|
D|-----0-----0-----0-----0-----0-----0-----0-----0-----0-----0---|-----2-----2-----2-----2----------|
A|---------------------------------------------------------------|--3-----3-----3-----3-------------|
E|--3-----3-----3-----3-----3-----3-----3-----3-----3-----3------|----------------------------------|

And no one knows we're anywhere,              we're not supposed to be

   Em               D/F#                 G             C                      C
e|-------------|------------------|-----------------|-----------------------|-----------------------|
B|-------------|------------------|-----------------|----------1------------|----------1------------|
G|----0-----0--|-------2-----0----|---------0-----0-|----0-----0----0-----0-|---0------0----0-----0-|
D|----2-----2--|-------0-----0----|---------0-----0-|----0h2--------2-----0-|---0h2---------2-----0-|
A|-------------|------------------|-----------------|--3-----3---3-----3----|-3-----3----3-----3----|
E|-0-----0-----|----2-----2-------|------3-----3----|-----------------------|-----------------------|

So stay a while and watch the wind throw patterns on a field

     G                                                              C
e|---------------------------------------------------------------|----------------------------------|
B|---------------------------------------------------------------|----------------------------------|
G|------0-----0-----0-----0-----0-----0-----0-----0-----0-----0--|-----0-----0-----0-----0----------|
D|------0-----0-----0-----0-----0-----0-----0-----0-----0-----0--|-----2-----2-----2-----2----------|
A|---------------------------------------------------------------|--3-----3-----3-----3-------------|
E|---3-----3-----3-----3-----3-----3-----3-----3-----3-----3-----|----------------------------------|
   
This crop withstood the months of snow,          the scavengers and blight

      Em           D/F#         G              Asus2             
e|---------------|------------|--------------|------------------------------------------------------|
B|---------------|------------|--------------|------------------------------------------------------|
G|-------0-----0-|----2-----0-|----0-----0---|----0-----0-----0-------------------------------------|
D|-------2-----2-|----0-----0-|----0-----0---|----2-----2-----2-------------------------------------|
A|---------------|------------|--------------|------------------------------------------------------|
E|----0-----0----|-2-----2----|-3-----3------|-5-----5-----5----------------------------------------|

Tuned every ear towards a tiny lengthening of light


[Refrain 2]
    G      G/F#                      G           G/F#   Em                        Asus2  
e|-------|------------------------|-------------------|------------------------|--------------------|
B|-------|------------------------|-------------------|------------------------|--------------------|
G|-----0-|----0-----0-----0-----0-|----0------0-------|----0-----0-----0-----0-|-----0-----0-----0--|
D|-----0-|----0-----0-----0-----0-|----0------0-----0-|----2-----2-----2-----2-|-----2-----2-----2--|
A|-------|------------------------|----0h2----2-----0-|------------------------|--------------------|
E|--3----|-2-----2-----2-----2----|--3-----3-----2----|-0-----0-----0-----0----|--5-----5-----5-----|

    And    found                   a way                                       to rise

    G       G/F#
e|--------|--------------------------|
B|--------|--------------------------|
G|-----0--|-----0-----0-----0-----0--|
D|-----0--|-----0-----0-----0-----0--|
A|--------|--------------------------|
E|--3-----|--2-----2-----2-----2-----|


   C        C/B      Am7      C/B       C        C/B      Am7       G   
e|------------------------------------|---------------------------|---------------------------------|
B|----1--1-----1--1-----1--1-----1--1-|----1--1-----1--1-----1--1-|---0-----------------------------|
G|----0--0-----0--0-----0--0-----0--0-|----0--0-----0--0-----0--0-|---0---0---0---0---0---0---0---0-|
D|------------------------------------|---------------------------|-------0---0---0---0---0---0---0-|
A|-3--------2--------0--------2-------|-3--------2--------0-------|---------------------------------|
E|------------------------------------|---------------------------|-3---3---3---3---3---3---3---3---|


[Bridge]

      Em                       D/F#                    G                       C             
e|---------------------------|-----------------------|-----------------------|----------------------|
B|---------------------------|-----------------------|-----------------------|----------1-----------|
G|-------0-----0-----0-----2-|----2-----2-----2----0-|----0-----0-----0----0-|---0------0----0----0-|
D|-------2-----2-----2-----0-|----0-----0-----0----0-|----0-----0-----0----0-|---0h2---------2----0-|
A|---------------------------|-----------------------|-----------------------|-3-----3----3----3----|
E|----0-----0-----0-----0----|-2-----2-----2----2----|-3-----3-----3----3----|----------------------|

We know               this world                    is good             enough

      Em                       D/F#                    G                       C             
e|---------------------------|-----------------------|-----------------------|----------------------|
B|---------------------------|-----------------------|-----------------------|----------1-----------|
G|-------0-----0-----0-----2-|----2-----2-----2----0-|----0-----0-----0----0-|---0------0----0----0-|
D|-------2-----2-----2-----0-|----0-----0-----0----0-|----0-----0-----0----0-|---0h2---------2----0-|
A|---------------------------|-----------------------|-----------------------|-3-----3----3----3----|
E|----0-----0-----0-----0----|-2-----2-----2----2----|-3-----3-----3----3----|----------------------|

Because                     it has                  to be

      Em                       D/F#                    G                       C             
e|---------------------------|-----------------------|-----------------------|----------------------|
B|---------------------------|-----------------------|-----------------------|----------1-----------|
G|-------0-----0-----0-----2-|----2-----2-----2----0-|----0-----0-----0----0-|---0------0----0----0-|
D|-------2-----2-----2-----0-|----0-----0-----0----0-|----0-----0-----0----0-|---0h2---------2----2-|
A|---------------------------|-----------------------|-----------------------|-3-----3----3----3----|
E|----0-----0-----0-----0----|-2-----2-----2----2----|-3-----3-----3----3----|----------------------|

Allow                      the hope               that we           will meet

    C                              G
e|------------------------------|-------------------------------------------------------------------|
B|------------------------------|-------------------------------------------------------------------|
G|-----0-----0-----0-----0------|-----0-----0-----0-----0-----0-----0-----0-----0-------------------|
D|-----2-----2-----2-----2------|-----0-----0-----0-----0-----0-----0-----0-----0-------------------|
A|--3-----3-----3-----3---------|-------------------------------------------------------------------|
E|------------------------------|--3-----3-----3-----3-----3-----3-----3-----3----------------------|

   Again out in the winter wheat


[Interlude]

    Em                       D/F#                    G                       C             
e|-------------------------|-----------------------|-----------------------|------------------------|
B|-------------------------|-----------------------|-----------------------|----------1-------------|
G|-----0-----0-----0-----2-|----2-----2-----2----0-|----0-----0-----0----0-|---0------0-----0-----0-|
D|-----2-----2-----2-----0-|----0-----0-----0----0-|----0-----0-----0----0-|---0h2----------2-----0-|x3
A|-------------------------|-----------------------|-----------------------|-3-----3-----3-----3----|
E|--0-----0-----0-----0----|-2-----2-----2----2----|-3-----3-----3----3----|------------------------|

    C                        C                           G
e|-------------------------|---------------------------|--------------------------------------------|
B|-----------1-------------|---------------------------|--------------------------------------------|
G|----0------0-----0-----0-|----0-----0-----0-----0----|----0-----0-----0-----0-----0-----0--0------|
D|----0h2----------2-----2-|----2-----2-----2-----2----|----0-----0-----0-----0-----0-----0--0------|
A|--3-----3-----3-----3----|-3-----3-----3-----3-------|-------------------------------------2------|
E|-------------------------|---------------------------|-3-----3-----3-----3-----3-----3-----3------|
 
                             Find me in the winter wheat

h = hammer-on 


            
            
Suggest correction
Creating personal tab
Creating personal tab
You can edit any tab online and save it as your Personal.

You can edit, replace or remove any tab part or add personal notes – all changes will be seen only by you.

Personal tabs can be accessed anytime from any device, even offline.
Learn more »
Give kudos to tab author, rate the tab!
1 2 3 4 5
comments
print report bad tab
guest
You may want to rate the tab now too:
select rating
Wanna post a correction for this tab? Suggest correction