Oops, an error
Loading. Please wait.
We have an official Boom Boom tab made by UG professional guitarists. Check out the tab »
×
98,035 views 102 this week
3 commentsread comments
1 2 3 4 5
x 15
add to favorites
×
Save as Personal and add changes to this tab that will be seen only by you. Learn more ›
×
You can save this tab as Personal to edit and correct it or add notes. All changes will be seen only by you. Learn more »
launch autoscroll
font size
0
reset
how to read this tab
guitar tuner
edit
Autoscroll
slow
fast
+/-
esc
set tempo
stop
!*CAPO 1st FRET*!

RESTS BETWEEN EACH RIFF FOR BAND RESPONSES

Riff 1
e|-------------------------------------------------------------------------|
B|-------------------------------------------------------------------------|
G|-2/4--4/2--0-------------------------------------------------------------|
D|---------------2---2-----------------------------------------------------|
A|-----------------2-------------------------------------------------------|
E|-------------------------------------------------------------------------|

BAND RESPONSE

Riff 2
e|-------------------------------------------------------------------------|
B|-------------------------------------------------------------------------|
G|-2/4--4/2--0-------------------------------------------------------------|
D|---------------2---2-----------------------------------------------------|
A|-----------------2-------------------------------------------------------|
E|-------------------------------------------------------------------------|

BAND RESPONSE

Riff 3
e|-------------------------------------------------------------------------|
B|-------------------------------------------------------------------------|
G|-2/4--4/2--0-------------------------------------------------------------|
D|--------------0----------------------------------------------------------|
A|----------------2-0------------------------------------------------------|
E|-------------------------------------------------------------------------|

BAND RESPONSE

Riff 2
e|-------------------------------------------------------------------------|
B|-------------------------------------------------------------------------|
G|-2/4--4/2--0-------------------------------------------------------------|
D|---------------2---2-----------------------------------------------------|
A|-----------------2-------------------------------------------------------|
E|-------------------------------------------------------------------------|

BAND RESPONSE

Riff 4
e|-------------------------------------------------------------------------|
B|-------------------------------------------------------------------------|
G|-2/4--4/2--0--0-2--0-2---------------------------------------------------|
D|-------------------------------------------------------------------------|
A|-------------------------------------------------------------------------|
E|-------------------------------------------------------------------------|

BAND RESPONSE

Riff 5
e|-------------------------------------------------------------------------|
B|---------------------------------------------------x---------------------|
G|--------0--0-------------------------------------------------------------|
D|---0--2--2----2----------------------------------------------------------|
A|-2-----------------------------------------------------------------------|
E|-------------------------------------------------------------------------|

************************************

| /  Slide up
| x  Dead note

************************************

            
            
Suggest correction
Creating personal tab
Creating personal tab
You can edit any tab online and save it as your Personal.

You can edit, replace or remove any tab part or add personal notes – all changes will be seen only by you.

Personal tabs can be accessed anytime from any device, even offline.
Learn more »
comments
print report bad tab
3 comments total.
0 reply
jakemlnarik 10 Mar 06, 2010 06:26 PM

Um, no?

0 reply
Underhide123 10 Apr 13, 2010 11:48 AM

that dont sound right man try again

0 reply
Don Cortizone 50 Nov 19, 2010 08:17 PM

that sounds bad bad bad, but your in the right notes so ya thats a starting point at least :D

guest
You may want to rate the tab now too:
select rating
Wanna post a correction for this tab? Suggest correction