Oops, an error
Loading. Please wait.
We have Chord Pro version of Happy Xmas War Is Over.
It's the closest thing you can get to the original song and it has interactive parts. Check out the tab »
×
361 views 12 this week
no commentswrite comment
1 2 3 4 5
3 more votes to show rating
add to favorites
×
Save as Personal and add changes to this tab that will be seen only by you. Learn more ›
×
You can save this tab as Personal to edit and correct it or add notes. All changes will be seen only by you. Learn more »
launch autoscroll
font size
0
reset
how to read this tab
guitar tuner
backing track
0:00
0:00
edit
Autoscroll
slow
fast
+/-
esc
set tempo
stop
Author
Difficulty
HAPPY XMAS (WAR IS OVER)

As recorded by John Lennon
(From the 1971 Album THE JOHN LENNON COLLECTION)

Words and Music by John Lennon

Transcribed by Slowhand


Gtr I (E A D G B E) - 'Hugh McCracken - Acoustic Guitar'
Gtr II (E A D G B E) - 'John Lennon - Acoustic Guitar'


            1st & 3rd Verses
  Q=72
             A          E/A
 6/8
  Gtr I (Ac. Gtr.)
             TP         TP
  W          Q.         Q.
|--------||------------------------|
|--------||o-2---------------------|
|--------||-------------4----------|
|--------||------------------------|
|--------||o-----------------------|
|--------||------------------------|
|
| Gtr II (Ac. Gtr.)
| W          E  S S S S E  S S S S
|--------||--0--0-0-0-0-0--0-0-0-0-|
|--------||o-2--2-2-2-2-0--0-0-0-0-|
|--------||--2--2-2-2-2-1--1-1-1-1-|
|--------||--2--2-2-2-2-2--2-2-2-2-|
|--------||o-0--0-0-0-0-0--0-0-0-0-|
|--------||------------------------|


  Asus4      A            Bm         Bsus2
  TP         TP           TP         TP
  Q.         Q.           Q.         Q.
|-----------------------|-----------------------|
|-3----------2----------|-3----------2----------|
|-----------------------|-----------------------|
|-----------------------|-----------------------|
|-----------------------|-----------------------|
|-----------------------|-----------------------|
|
| E  S S S S E  S S S S   E  S S S S E  S S S S
|-0--0-0-0-0-0--0-0-0-0-|-2--2-2-2-2-2--2-2-2-2-|
|-3--3-3-3-3-2--2-2-2-2-|-3--3-3-3-3-2--2-2-2-2-|
|-2--2-2-2-2-2--2-2-2-2-|-4--4-4-4-4-4--4-4-4-4-|
|-2--2-2-2-2-2--2-2-2-2-|-4--4-4-4-4-4--4-4-4-4-|
|-0--0-0-0-0-0--0-0-0-0-|-2--2-2-2-2-2--2-2-2-2-|
|-----------------------|-----------------------|


  Bsus4      Bm           Esus4      E            Eadd9      E
  TP         TP           TP         TP           TP         TP
  Q.         Q.           Q.         Q.           Q.         Q.
|-----------------------|-----------------------|-----------------------|
|-5----------3----------|-----------------------|-----------------------|
|-----------------------|-2----------1----------|------------1----------|
|-----------------------|-----------------------|-4---------------------|
|-----------------------|-----------------------|-----------------------|
|-----------------------|-----------------------|-----------------------|
|
| E  S S S S E  S S S S   E  S S S S E  S S S S   E  S S S S E  S S S S
|-2--2-2-2-2-2--2-2-2-2-|-0--0-0-0-0-0--0-0-0-0-|-0--0-0-0-0-0--0-0-0-0-|
|-5--5-5-5-5-3--3-3-3-3-|-0--0-0-0-0-0--0-0-0-0-|-0--0-0-0-0-0--0-0-0-0-|
|-4--4-4-4-4-4--4-4-4-4-|-2--2-2-2-2-1--1-1-1-1-|-1--1-1-1-1-1--1-1-1-1-|
|-4--4-4-4-4-4--4-4-4-4-|-2--2-2-2-2-2--2-2-2-2-|-4--4-4-4-4-2--2-2-2-2-|
|-2--2-2-2-2-2--2-2-2-2-|-2--2-2-2-2-2--2-2-2-2-|-2--2-2-2-2-2--2-2-2-2-|
|-----------------------|-0--0-0-0-0-0--0-0-0-0-|-0--0-0-0-0-0--0-0-0-0-|


                                                  2nd & 4th Verses
  A          E/A          Asus4      A             D          A/D
  TP         TP           TP         TP            TP         TP
  Q.         Q.           Q.         Q.            Q.         Q.
|-----------------------|-----------------------||------------------------|
|-2---------------------|-3----------2----------||-7----------------------|
|------------4----------|-----------------------||------------9-----------|
|-----------------------|-----------------------||------------------------|
|-----------------------|-----------------------||------------------------|
|-----------------------|-----------------------||------------------------|
|
| E  S S S S E  S S S S   E  S S S S E  S S S S    E  S S S S E  S S S S
|-0--0-0-0-0-0--0-0-0-0-|-0--0-0-0-0-0--0-0-0-0-||-2--2-2-2-2-0--0-0-0-0--|
|-2--2-2-2-2-0--0-0-0-0-|-3--3-3-3-3-2--2-2-2-2-||-3--3-3-3-3-2--2-2-2-2--|
|-2--2-2-2-2-1--1-1-1-1-|-2--2-2-2-2-2--2-2-2-2-||-2--2-2-2-2-2--2-2-2-2--|
|-2--2-2-2-2-2--2-2-2-2-|-2--2-2-2-2-2--2-2-2-2-||-0--0-0-0-0-0--0-0-0-0--|
|-0--0-0-0-0-0--0-0-0-0-|-0--0-0-0-0-0--0-0-0-0-||------------------------|
|-----------------------|-----------------------||------------------------|


  Dsus4      D            Em         Em/maj7      Emadd9     Em
  TP         TP           TP         TP           TP         TP
  Q.         Q.           Q.         Q.           Q.         Q.
|-----------------------|-----------------------|------------------------|
|-8----------7----------|-----------------------|-7----------------------|
|-----------------------|-9----------8----------|------------9-----------|
|-----------------------|-----------------------|------------------------|
|-----------------------|-----------------------|------------------------|
|-----------------------|-----------------------|------------------------|
|
| E  S S S S E  S S S S   E  S S S S E  S S S S   E  S S S S E  S S S S
|-3--3-3-3-3-2--2-2-2-2-|-0--0-0-0-0-0--0-0-0-0-|-0--0-0-0-0-0--0-0-0-0--|
|-3--3-3-3-3-3--3-3-3-3-|-0--0-0-0-0-0--0-0-0-0-|-0--0-0-0-0-0--0-0-0-0--|
|-2--2-2-2-2-2--2-2-2-2-|-0--0-0-0-0-0--0-0-0-0-|-0--0-0-0-0-0--0-0-0-0--|
|-0--0-0-0-0-0--0-0-0-0-|-2--2-2-2-2-1--1-1-1-1-|-4--4-4-4-4-2--2-2-2-2--|
|-----------------------|-2--2-2-2-2-2--2-2-2-2-|-2--2-2-2-2-2--2-2-2-2--|
|-----------------------|-0--0-0-0-0-0--0-0-0-0-|-0--0-0-0-0-0--0-0-0-0--|


  Asus4      A            Asus2      A            D          A/D
  TP         TP           TP         TP           TP         TP
  Q.         Q.           Q.         Q.           Q.         Q.
|-----------------------|-----------------------|------------------------|
|-----------------------|-----------------------|-7----------------------|
|-7----------6----------|------------6----------|------------9-----------|
|-----------------------|-9---------------------|------------------------|
|-----------------------|-----------------------|------------------------|
|-----------------------|-----------------------|------------------------|
|
| E  S S S S E  S S S S   E  S S S S E  S S S S   E  S S S S E  S S S S
|-0--0-0-0-0-0--0-0-0-0-|-0--0-0-0-0-0--0-0-0-0-|-2--2-2-2-2-0--0-0-0-0--|
|-3--3-3-3-3-2--2-2-2-2-|-0--0-0-0-0-2--2-2-2-2-|-3--3-3-3-3-2--2-2-2-2--|
|-2--2-2-2-2-2--2-2-2-2-|-2--2-2-2-2-2--2-2-2-2-|-2--2-2-2-2-2--2-2-2-2--|
|-2--2-2-2-2-2--2-2-2-2-|-2--2-2-2-2-2--2-2-2-2-|-0--0-0-0-0-0--0-0-0-0--|
|-0--0-0-0-0-0--0-0-0-0-|-0--0-0-0-0-0--0-0-0-0-|------------------------|
|-----------------------|-----------------------|------------------------|


                          Chorus
                        $
  Dsus4      D             G
  TP         TP
  Q.         Q.            W                     W
|-----------------------||---------------------|----------------------|
|-8----------7----------||---------------------|----------------------|
|-----------------------||---------------------|----------------------|
|-----------------------||---------------------|----------------------|
|-----------------------||---------------------|----------------------|
|-----------------------||---------------------|----------------------|
|
| E  S S S S E  S S S S    E S S S S E S S S S   E S S S S E S S S S
|-3--3-3-3-3-2--2-2-2-2-||-3-3-3-3-3-3-3-3-3-3-|-3-3-3-3-3-3-3-3-3-3--|
|-3--3-3-3-3-3--3-3-3-3-||-0-0-0-0-0-0-0-0-0-0-|-0-0-0-0-0-0-0-0-0-0--|
|-2--2-2-2-2-2--2-2-2-2-||-0-0-0-0-0-0-0-0-0-0-|-0-0-0-0-0-0-0-0-0-0--|
|-0--0-0-0-0-0--0-0-0-0-||-0-0-0-0-0-0-0-0-0-0-|-0-0-0-0-0-0-0-0-0-0--|
|-----------------------||-2-2-2-2-2-2-2-2-2-2-|-2-2-2-2-2-2-2-2-2-2--|
|-----------------------||-3-3-3-3-3-3-3-3-3-3-|-3-3-3-3-3-3-3-3-3-3--|


  A                                           Em
  Gtr II
  E S S S S E S S S S   E S S S S E S S S S   E S S S S E S S S S
|-0-0-0-0-0-0-0-0-0-0-|-0-0-0-0-0-0-0-0-0-0-|-0-0-0-0-0-0-0-0-0-0--|
|-2-2-2-2-2-2-2-2-2-2-|-2-2-2-2-2-2-2-2-2-2-|-0-0-0-0-0-0-0-0-0-0--|
|-2-2-2-2-2-2-2-2-2-2-|-2-2-2-2-2-2-2-2-2-2-|-0-0-0-0-0-0-0-0-0-0--|
|-2-2-2-2-2-2-2-2-2-2-|-2-2-2-2-2-2-2-2-2-2-|-2-2-2-2-2-2-2-2-2-2--|
|-0-0-0-0-0-0-0-0-0-0-|-0-0-0-0-0-0-0-0-0-0-|-2-2-2-2-2-2-2-2-2-2--|
|---------------------|---------------------|-0-0-0-0-0-0-0-0-0-0--|


                                              1.
                                     To Coda
  G                     D                      E
  E S S S S E S S S S   E S S S S E S S S S    E S S S S E S S S S
|-3-3-3-3-3-3-3-3-3-3-|-2-2-2-2-2-2-2-2-2-2--|-0-0-0-0-0-0-0-0-0-0--||
|-0-0-0-0-0-0-0-0-0-0-|-3-3-3-3-3-3-3-3-3-3--|-0-0-0-0-0-0-0-0-0-0-o||
|-0-0-0-0-0-0-0-0-0-0-|-2-2-2-2-2-2-2-2-2-2--|-1-1-1-1-1-1-1-1-1-1--||
|-0-0-0-0-0-0-0-0-0-0-|-0-0-0-0-0-0-0-0-0-0--|-2-2-2-2-2-2-2-2-2-2--||
|-2-2-2-2-2-2-2-2-2-2-|----------------------|-2-2-2-2-2-2-2-2-2-2-o||
|-3-3-3-3-3-3-3-3-3-3-|----------------------|-0-0-0-0-0-0-0-0-0-0--||


                        5th Verse
  2.
  E                      A          E/A
  Gtr I
                         TP         TP
  W                      Q.         Q.
|---------------------||-----------------------|
|---------------------||-2---------------------|
|---------------------||------------4----------|
|---------------------||-----------------------|
|---------------------||-----------------------|
|---------------------||-----------------------|
|
| Gtr II
| E S S S S E S S S S    E  S S S S E  S S S S
|-0-0-0-0-0-0-0-0-0-0-||-0--0-0-0-0-0--0-0-0-0-|
|-0-0-0-0-0-0-0-0-0-0-||-2--2-2-2-2-0--0-0-0-0-|
|-1-1-1-1-1-1-1-1-1-1-||-2--2-2-2-2-1--1-1-1-1-|
|-2-2-2-2-2-2-2-2-2-2-||-2--2-2-2-2-2--2-2-2-2-|
|-2-2-2-2-2-2-2-2-2-2-||-0--0-0-0-0-0--0-0-0-0-|
|-0-0-0-0-0-0-0-0-0-0-||-----------------------|


  Asus4      A            Bm         Bsus2
  TP         TP           TP         TP
  Q.         Q.           Q.         Q.
|-----------------------|-------------------------|
|-3----------2----------|-3----------2------------|
|-----------------------|-------------------------|
|-----------------------|-------------------------|
|-----------------------|-------------------------|
|-----------------------|-------------------------|
|
| E  S S S S E  S S S S   E  S S S S E  S S S S
|-0--0-0-0-0-0--0-0-0-0-|-2--2-2-2-2-2--2-2-2-2---|
|-3--3-3-3-3-2--2-2-2-2-|-3--3-3-3-3-2--2-2-2-2---|
|-2--2-2-2-2-2--2-2-2-2-|-4--4-4-4-4-4--4-4-4-4---|
|-2--2-2-2-2-2--2-2-2-2-|-4--4-4-4-4-4--4-4-4-4---|
|-0--0-0-0-0-0--0-0-0-0-|-2--2-2-2-2-2--2-2-2-2---|
|-----------------------|-------------------------|


  Bsus4      Bm           Esus4      E            Eadd9      E
  TP         TP           TP         TP           TP         TP
  Q.         Q.           Q.         Q.           Q.         Q.
|-----------------------|-----------------------|-----------------------|
|-5----------3----------|-----------------------|-----------------------|
|-----------------------|-2----------1----------|------------1----------|
|-----------------------|-----------------------|-4---------------------|
|-----------------------|-----------------------|-----------------------|
|-----------------------|-----------------------|-----------------------|
|
| E  S S S S E  S S S S   E  S S S S E  S S S S   E  S S S S E  S S S S
|-2--2-2-2-2-2--2-2-2-2-|-0--0-0-0-0-0--0-0-0-0-|-0--0-0-0-0-0--0-0-0-0-|
|-5--5-5-5-5-3--3-3-3-3-|-0--0-0-0-0-0--0-0-0-0-|-0--0-0-0-0-0--0-0-0-0-|
|-4--4-4-4-4-4--4-4-4-4-|-2--2-2-2-2-1--1-1-1-1-|-1--1-1-1-1-1--1-1-1-1-|
|-4--4-4-4-4-4--4-4-4-4-|-2--2-2-2-2-2--2-2-2-2-|-4--4-4-4-4-2--2-2-2-2-|
|-2--2-2-2-2-2--2-2-2-2-|-2--2-2-2-2-2--2-2-2-2-|-2--2-2-2-2-2--2-2-2-2-|
|-----------------------|-0--0-0-0-0-0--0-0-0-0-|-0--0-0-0-0-0--0-0-0-0-|


                                                  6th Verse
  A          E/A          Asus4      A             D          A/D
  TP         TP           TP         TP            TP         TP
  Q.         Q.           Q.         Q.            Q.         Q.
|-----------------------|-----------------------||------------------------|
|-2---------------------|-3----------2----------||-7----------------------|
|------------4----------|-----------------------||------------9-----------|
|-----------------------|-----------------------||------------------------|
|-----------------------|-----------------------||------------------------|
|-----------------------|-----------------------||------------------------|
|
| E  S S S S E  S S S S   E  S S S S E  S S S S    E  S S S S E  S S S S
|-0--0-0-0-0-0--0-0-0-0-|-0--0-0-0-0-0--0-0-0-0-||-2--2-2-2-2-0--0-0-0-0--|
|-2--2-2-2-2-0--0-0-0-0-|-3--3-3-3-3-2--2-2-2-2-||-3--3-3-3-3-2--2-2-2-2--|
|-2--2-2-2-2-1--1-1-1-1-|-2--2-2-2-2-2--2-2-2-2-||-2--2-2-2-2-2--2-2-2-2--|
|-2--2-2-2-2-2--2-2-2-2-|-2--2-2-2-2-2--2-2-2-2-||-0--0-0-0-0-0--0-0-0-0--|
|-0--0-0-0-0-0--0-0-0-0-|-0--0-0-0-0-0--0-0-0-0-||------------------------|
|-----------------------|-----------------------||------------------------|


  Dsus4      D            Em         Em/maj7      Emadd9     Em
  TP         TP           TP         TP           TP         TP
  Q.         Q.           Q.         Q.           Q.         Q.
|-----------------------|-----------------------|------------------------|
|-8----------7----------|-----------------------|-7----------------------|
|-----------------------|-9----------8----------|------------9-----------|
|-----------------------|-----------------------|------------------------|
|-----------------------|-----------------------|------------------------|
|-----------------------|-----------------------|------------------------|
|
| E  S S S S E  S S S S   E  S S S S E  S S S S   E  S S S S E  S S S S
|-3--3-3-3-3-2--2-2-2-2-|-0--0-0-0-0-0--0-0-0-0-|-0--0-0-0-0-0--0-0-0-0--|
|-3--3-3-3-3-3--3-3-3-3-|-0--0-0-0-0-0--0-0-0-0-|-0--0-0-0-0-0--0-0-0-0--|
|-2--2-2-2-2-2--2-2-2-2-|-0--0-0-0-0-0--0-0-0-0-|-0--0-0-0-0-0--0-0-0-0--|
|-0--0-0-0-0-0--0-0-0-0-|-2--2-2-2-2-1--1-1-1-1-|-4--4-4-4-4-2--2-2-2-2--|
|-----------------------|-2--2-2-2-2-2--2-2-2-2-|-2--2-2-2-2-2--2-2-2-2--|
|-----------------------|-0--0-0-0-0-0--0-0-0-0-|-0--0-0-0-0-0--0-0-0-0--|


  Asus4      A            Asus2      A            D          A/D
  TP         TP           TP         TP           TP         TP
  Q.         Q.           Q.         Q.           Q.         Q.
|-----------------------|-----------------------|------------------------|
|-----------------------|-----------------------|-7----------------------|
|-7----------6----------|------------6----------|------------9-----------|
|-----------------------|-9---------------------|------------------------|
|-----------------------|-----------------------|------------------------|
|-----------------------|-----------------------|------------------------|
|
| E  S S S S E  S S S S   E  S S S S E  S S S S   E  S S S S E  S S S S
|-0--0-0-0-0-0--0-0-0-0-|-0--0-0-0-0-0--0-0-0-0-|-2--2-2-2-2-0--0-0-0-0--|
|-3--3-3-3-3-2--2-2-2-2-|-0--0-0-0-0-2--2-2-2-2-|-3--3-3-3-3-2--2-2-2-2--|
|-2--2-2-2-2-2--2-2-2-2-|-2--2-2-2-2-2--2-2-2-2-|-2--2-2-2-2-2--2-2-2-2--|
|-2--2-2-2-2-2--2-2-2-2-|-2--2-2-2-2-2--2-2-2-2-|-0--0-0-0-0-0--0-0-0-0--|
|-0--0-0-0-0-0--0-0-0-0-|-0--0-0-0-0-0--0-0-0-0-|------------------------|
|-----------------------|-----------------------|------------------------|


                                                  Outro
            D.S. al Coda &
  Dsus4      D              E                      A          E/A
  TP         TP                                    TP         TP
  Q.         Q.             W                      Q.         Q.
|------------------------||---------------------||-----------------------|
|-8----------7-----------||---------------------||-2---------------------|
|------------------------||---------------------||------------4----------|
|------------------------||---------------------||-----------------------|
|------------------------||---------------------||-----------------------|
|------------------------||---------------------||-----------------------|
|
| E  S S S S E  S S S S     E S S S S E S S S S    E  S S S S E  S S S S
|-3--3-3-3-3-2--2-2-2-2--||-0-0-0-0-0-0-0-0-0-0-||-0--0-0-0-0-0--0-0-0-0-|
|-3--3-3-3-3-3--3-3-3-3--||-0-0-0-0-0-0-0-0-0-0-||-2--2-2-2-2-0--0-0-0-0-|
|-2--2-2-2-2-2--2-2-2-2--||-1-1-1-1-1-1-1-1-1-1-||-2--2-2-2-2-1--1-1-1-1-|
|-0--0-0-0-0-0--0-0-0-0--||-2-2-2-2-2-2-2-2-2-2-||-2--2-2-2-2-2--2-2-2-2-|
|------------------------||-2-2-2-2-2-2-2-2-2-2-||-0--0-0-0-0-0--0-0-0-0-|
|------------------------||-0-0-0-0-0-0-0-0-0-0-||-----------------------|


  Asus4      A            Bm         Bsus2        Bsus4      Bm
  TP         TP           TP         TP           TP         TP
  Q.         Q.           Q.         Q.           Q.         Q.
|-----------------------|-----------------------|-----------------------|
|-3----------2----------|-3----------2----------|-5----------3----------|
|-----------------------|-----------------------|-----------------------|
|-----------------------|-----------------------|-----------------------|
|-----------------------|-----------------------|-----------------------|
|-----------------------|-----------------------|-----------------------|
|
| E  S S S S E  S S S S   E  S S S S E  S S S S   E  S S S S E  S S S S
|-0--0-0-0-0-0--0-0-0-0-|-2--2-2-2-2-2--2-2-2-2-|-2--2-2-2-2-2--2-2-2-2-|
|-3--3-3-3-3-2--2-2-2-2-|-3--3-3-3-3-2--2-2-2-2-|-5--5-5-5-5-3--3-3-3-3-|
|-2--2-2-2-2-2--2-2-2-2-|-4--4-4-4-4-4--4-4-4-4-|-4--4-4-4-4-4--4-4-4-4-|
|-2--2-2-2-2-2--2-2-2-2-|-4--4-4-4-4-4--4-4-4-4-|-4--4-4-4-4-4--4-4-4-4-|
|-0--0-0-0-0-0--0-0-0-0-|-2--2-2-2-2-2--2-2-2-2-|-2--2-2-2-2-2--2-2-2-2-|
|-----------------------|-----------------------|-----------------------|


  TP         TP           TP         TP
  Q.         Q.           Q.         Q.
|-----------------------|-----------------------|
|-----------------------|-----------------------|
|-2----------1----------|------------1----------|
|-----------------------|-4---------------------|
|-----------------------|-----------------------|
|-----------------------|-----------------------|
|
| E  S S S S E  S S S S   E  S S S S E  S S S S
|-0--0-0-0-0-0--0-0-0-0-|-0--0-0-0-0-0--0-0-0-0-|
|-0--0-0-0-0-0--0-0-0-0-|-0--0-0-0-0-0--0-0-0-0-|
|-2--2-2-2-2-1--1-1-1-1-|-1--1-1-1-1-1--1-1-1-1-|
|-2--2-2-2-2-2--2-2-2-2-|-4--4-4-4-4-2--2-2-2-2-|
|-2--2-2-2-2-2--2-2-2-2-|-2--2-2-2-2-2--2-2-2-2-|
|-0--0-0-0-0-0--0-0-0-0-|-0--0-0-0-0-0--0-0-0-0-|


  TP         TP           TP         TP
  Q.         Q.           Q.         Q.
|-----------------------|-----------------------*|
|-2---------------------|-3----------2----------*|
|------------4----------|-----------------------*|
|-----------------------|-----------------------*|
|-----------------------|-----------------------*|
|-----------------------|-----------------------*|
|
| E  S S S S E  S S S S   E  S S S S E  S S S S
|-0--0-0-0-0-0--0-0-0-0-|-0--0-0-0-0-0--0-0-0-0-*|
|-2--2-2-2-2-0--0-0-0-0-|-3--3-3-3-3-2--2-2-2-2-*|
|-2--2-2-2-2-1--1-1-1-1-|-2--2-2-2-2-2--2-2-2-2-*|
|-2--2-2-2-2-2--2-2-2-2-|-2--2-2-2-2-2--2-2-2-2-*|
|-0--0-0-0-0-0--0-0-0-0-|-0--0-0-0-0-0--0-0-0-0-*|
|-----------------------|-----------------------*|


Duration Legend
---------------
W - whole; H - half; Q - quarter; E - 8th; S - 16th; T - 32nd; X - 64th; a - acciaccatura
+ - note tied to previous; . - note dotted; .. - note double dotted
Uncapitalized letters represent notes that are staccato (1/2 duration)
Irregular groupings are notated above the duration line
Duration letters will always appear directly above the note/fret number it represents the
duration for.  Duration letters with no fret number below them represent rests.  Multi-
bar rests are notated in the form Wxn, where n is the number of bars to rest for.  Low
melody durations appear below the staff

Tablature Legend
----------------
 h   - hammer-on
 p   - pull-off
 b   - bend
 pb  - pre-bend
 r   - bend release (if no number after the r, then release immediately)
 /\  - slide into or out of (from/to "nowhere")
 s   - legato slide
 S   - shift slide
  - natural harmonic
[n]  - artificial harmonic
n(n) - tapped harmonic
 ~   - vibrato
 tr  - trill
 T   - tap
 TP  - trem. picking
 PM  - palm muting
\n/  - tremolo bar dip; n = amount to dip
 \n  - tremolo bar down
 n/  - tremolo bar up
/n\  - tremolo bar inverted dip
 =   - hold bend; also acts as connecting device for hammers/pulls
 <>  - volume swell (louder/softer)
 x   - on rhythm slash represents muted slash
 o   - on rhythm slash represents single note slash

Misc Legend
-----------
 |  - bar
||  - double bar
||o - repeat start
o|| - repeat end
*|  - double bar (ending)
 :  - bar (freetime)
 $  - Segno
 &  - Coda
Tempo markers -  = BPM(8/16=s8/s16), where s8 = swing 8ths, s16 = swing 16ths



So this is Xmas
And what have you done
Another year over
And a new one just begun
And so this is Xmas
I hope you have fun
The near and the dear one
The old and the young

A very Merry Xmas
And a happy New Year
Let's hope it's a good one
Without any fear

And so this is Xmas (war is over)
For weak and for strong (if you want it)
For rich and the poor ones (war is over)
The world is so wrong (if you want it)
And so happy Xmas (war is over)
For black and for white (if you want it)
For yellow and red ones (war is over)
Let's stop all the fight (now)

A very Merry Xmas
And a happy New Year
Let's hope it's a good one
Without any fear

And so this is Xmas (war is over)
And what have we done (if you want it)
Another year over (war is over)
A new one just begun (if you want it)
And so happy Xmas (war is over)
We hope you have fun (if you want it)
The near and the dear one (war is over)
The old and the young (now)

A very Merry Xmas
And a happy New Year
Let's hope it's a good one
Without any fear

War is over, if you want it
War is over now

Happy Xmas 

            
            
Suggest correction
Creating personal tab
Creating personal tab
You can edit any tab online and save it as your Personal.

You can edit, replace or remove any tab part or add personal notes – all changes will be seen only by you.

Personal tabs can be accessed anytime from any device, even offline.
Learn more »
Give kudos to tab author, rate the tab!
1 2 3 4 5
comments
print report bad tab
guest
You may want to rate the tab now too:
select rating
Wanna post a correction for this tab? Suggest correction