Oops, an error
Loading. Please wait.
We have an official Instant Karma tab made by UG professional guitarists. Check out the tab »
×
11,433 views 3 this week
no commentswrite comment
1 2 3 4 5
3 more votes to show rating
add to favorites
×
Save as Personal and add changes to this tab that will be seen only by you. Learn more ›
×
You can save this tab as Personal to edit and correct it or add notes. All changes will be seen only by you. Learn more »
launch autoscroll
font size
0
reset
how to read this tab
guitar tuner
backing track
0:00
0:00
edit
Autoscroll
slow
fast
+/-
esc
set tempo
stop
Author
INSTANT KARMA


John Lennon



  INTRO



e|---------------------------------|---------------------------------|
B|---------------------------------|---------------------------------|
G|---------------------------------|---------------------------------|
D|-2-------------------------------|-5-------------------------------|
A|---------------------------------|---------------------------------|
E|-0-------------------------------|-3-------------------------------|





  VERSE


   A                                 F#m
e|-0-------0-------0-------0-------|-2-------2-------2-------2-------|
B|-2-------2-------2-------2-------|-2-------2-------2-------2-------|
G|-2-------2-------2-------2-------|-2-------2-------2-------2-------|
D|-2-------2-------2-------2-------|-4-------4-------4-------4-------|
A|-0-------0-------0-------0-------|-4-------4-------4-------4-------|
E|---------------------------------|-2-------2-------2-------2-------|




   A                                 F#m
e|-0-------0-------0-------0-------|-2-------2-------2-------2-------|
B|-2-------2-------2-------2-------|-2-------2-------2-------2-------|
G|-2-------2-------2-------2-------|-2-------2-------2-------2-------|
D|-2-------2-------2-------2-------|-4-------4-------4-------4-------|
A|-0-------0-------0-------0-------|-4-------4-------4-------4-------|
E|---------------------------------|-2-------2-------2-------2-------|




   A                                 F#m
e|-0-------0-------0-------0-------|-2-------2-------2-------2-------|
B|-2-------2-------2-------2-------|-2-------2-------2-------2-------|
G|-2-------2-------2-------2-------|-2-------2-------2-------2-------|
D|-2-------2-------2-------2-------|-4-------4-------4-------4-------|
A|-0-------0-------0-------0-------|-4-------4-------4-------4-------|
E|---------------------------------|-2-------2-------2-------2-------|




   F               G                 A
e|-1-------1-------3-------3-------|-0-------0-------0-------0-------|
B|-1-------1-------3-------3-------|-2-------2-------2-------2-------|
G|-2-------2-------4-------4-------|-2-------2-------2-------2-------|
D|-3-------3-------5-------5-------|-2-------2-------2-------2-------|
A|-3-------3-------5-------5-------|-0-------0-------0-------0-------|
E|-1-------1-------3-------3-------|---------------------------------|




   D               D/C#              D/B             D/A
e|-2-------2-------2-------2-------|-2-------2-------2-------2-------|
B|-3-------3-------3-------3-------|-3-------3-------3-------3-------|
G|-2-------2-------2-------2-------|-2-------2-------2-------2-------|
D|-0-------0-------4-------4-------|-4-------4-------4-------4-------|
A|-----------------4-------4-------|-2-------2-------0-------0-------|
E|---------------------------------|---------------------------------|




   D               D/C#              D/B             D/A
e|-2-------2-------2-------2-------|-2-------2-------2-------2-------|
B|-3-------3-------3-------3-------|-3-------3-------3-------3-------|
G|-2-------2-------2-------2-------|-2-------2-------2-------2-------|
D|-0-------0-------4-------4-------|-4-------4-------4-------4-------|
A|-----------------4-------4-------|-2-------2-------0-------0-------|
E|---------------------------------|---------------------------------|




   Am/C            Am/B              Am              Am/G
e|-0-------0-------0-------0-------|-0-------0-------0-------0-------|
B|-1-------1-------1-------1-------|-1-------1-------1-------1-------|
G|-2-------2-------2-------2-------|-2-------2-------2-------2-------|
D|-2-------2-------2-------2-------|-2-------2-------2-------2-------|
A|-3-------3-------2-------2-------|-0-------0-----------------------|
E|---------------------------------|-----------------3-------3-------|




   D                                 E
e|-2-------2-------2-------2-------|-0-------0-------0-------0-------|
B|-3-------3-------3-------3-------|-0-------0-------0-------0-------|
G|-2-------2-------2-------2-------|-1-------1-------1-------1-------|
D|-0-------0-------0-------0-------|-2-------2-------2-------2-------|
A|---------------------------------|-2-------2-------2-------2-------|
E|---------------------------------|-0-------0-------0-------0-------|





  VERSE


   A                                 F#m
e|-0-------0-------0-------0-------|-2-------2-------2-------2-------|
B|-2-------2-------2-------2-------|-2-------2-------2-------2-------|
G|-2-------2-------2-------2-------|-2-------2-------2-------2-------|
D|-2-------2-------2-------2-------|-4-------4-------4-------4-------|
A|-0-------0-------0-------0-------|-4-------4-------4-------4-------|
E|---------------------------------|-2-------2-------2-------2-------|




   A                                 F#m
e|-0-------0-------0-------0-------|-2-------2-------2-------2-------|
B|-2-------2-------2-------2-------|-2-------2-------2-------2-------|
G|-2-------2-------2-------2-------|-2-------2-------2-------2-------|
D|-2-------2-------2-------2-------|-4-------4-------4-------4-------|
A|-0-------0-------0-------0-------|-4-------4-------4-------4-------|
E|---------------------------------|-2-------2-------2-------2-------|




   A                                 F#m
e|-0-------0-------0-------0-------|-2-------2-------2-------2-------|
B|-2-------2-------2-------2-------|-2-------2-------2-------2-------|
G|-2-------2-------2-------2-------|-2-------2-------2-------2-------|
D|-2-------2-------2-------2-------|-4-------4-------4-------4-------|
A|-0-------0-------0-------0-------|-4-------4-------4-------4-------|
E|---------------------------------|-2-------2-------2-------2-------|




   F               G                 A
e|-1-------1-------3-------3-------|-0-------0-------0-------0-------|
B|-1-------1-------3-------3-------|-2-------2-------2-------2-------|
G|-2-------2-------4-------4-------|-2-------2-------2-------2-------|
D|-3-------3-------5-------5-------|-2-------2-------2-------2-------|
A|-3-------3-------5-------5-------|-0-------0-------0-------0-------|
E|-1-------1-------3-------3-------|---------------------------------|





  PRE-CHORUS


   D               D/C#              D/B
e|-2-------2-------2-------2-------|-2-------------------------------|
B|-3-------3-------3-------3-------|-3-------------------------------|
G|-2-------2-------2-------2-------|-2-------------------------------|
D|-0-------0-------4-------4-------|-4-------------------------------|
A|-----------------4-------4-------|-2-------------------------------|
E|---------------------------------|---------------------------------|




   D               D/C#              D/B             D/A
e|-2-------2-------2-------2-------|-2-------2-------2-------2-------|
B|-3-------3-------3-------3-------|-3-------3-------3-------3-------|
G|-2-------2-------2-------2-------|-2-------2-------2-------2-------|
D|-0-------0-------4-------4-------|-4-------4-------4-------4-------|
A|-----------------4-------4-------|-2-------2-------0-------0-------|
E|---------------------------------|---------------------------------|




   Am/C            Am/B              Am              Am/G
e|-0-------0-------0-------0-------|-0-------0-------0-------0-------|
B|-1-------1-------1-------1-------|-1-------1-------1-------1-------|
G|-2-------2-------2-------2-------|-2-------2-------2-------2-------|
D|-2-------2-------2-------2-------|-2-------2-------2-------2-------|
A|-3-------3-------2-------2-------|-0-------0-----------------------|
E|---------------------------------|-----------------3-------3-------|




   D                                 E
e|-2-------2-------2-------2-------|-0-------0-------0-------0-------|
B|-3-------3-------3-------3-------|-0-------0-------0-------0-------|
G|-2-------2-------2-------2-------|-1-------1-------1-------1-------|
D|-0-------0-------0-------0-------|-2-------2-------2-------2-------|
A|---------------------------------|-2-------2-------2-------2-------|
E|---------------------------------|-0-------0-------0-------0-------|





  CHORUS


   G               D/A               Em
e|-3-------3-------2-------2-------|-0-------0-------0-------0-------|
B|-3-------3-------3-------3-------|-0-------0-------0-------0-------|
G|-4-------4-------2-------2-------|-0-------0-------0-------0-------|
D|-5-------5-------0-------0-------|-2-------2-------2-------2-------|
A|-5-------5-------0-------0-------|-2-------2-------2-------2-------|
E|-3-------3-----------------------|-0-------0-------0-------0-------|




   G               D/A               Em
e|-3-------3-------2-------2-------|-0-------0-------0-------0-------|
B|-3-------3-------3-------3-------|-0-------0-------0-------0-------|
G|-4-------4-------2-------2-------|-0-------0-------0-------0-------|
D|-5-------5-------0-------0-------|-2-------2-------2-------2-------|
A|-5-------5-------0-------0-------|-2-------2-------2-------2-------|
E|-3-------3-----------------------|-0-------0-------0-------0-------|




   G               D/A               Em
e|-3-------3-------2-------2-------|-0-------0-------0-------0-------|
B|-3-------3-------3-------3-------|-0-------0-------0-------0-------|
G|-4-------4-------2-------2-------|-0-------0-------0-------0-------|
D|-5-------5-------0-------0-------|-2-------2-------2-------2-------|
A|-5-------5-------0-------0-------|-2-------2-------2-------2-------|
E|-3-------3-----------------------|-0-------0-------0-------0-------|




   D                                 E
e|-2-------2-------2-------2-------|-0-------0-------0-------0-------|
B|-3-------3-------3-------3-------|-0-------0-------0-------0-------|
G|-2-------2-------2-------2-------|-1-------1-------1-------1-------|
D|-0-------0-------0-------0-------|-2-------2-------2-------2-------|
A|---------------------------------|-2-------2-------2-------2-------|
E|---------------------------------|-0-------0-------0-------0-------|





  VERSE


   A                                 F#m
e|-0-------0-------0-------0-------|-2-------2-------2-------2-------|
B|-2-------2-------2-------2-------|-2-------2-------2-------2-------|
G|-2-------2-------2-------2-------|-2-------2-------2-------2-------|
D|-2-------2-------2-------2-------|-4-------4-------4-------4-------|
A|-0-------0-------0-------0-------|-4-------4-------4-------4-------|
E|---------------------------------|-2-------2-------2-------2-------|




   A                                 F#m
e|-0-------0-------0-------0-------|-2-------2-------2-------2-------|
B|-2-------2-------2-------2-------|-2-------2-------2-------2-------|
G|-2-------2-------2-------2-------|-2-------2-------2-------2-------|
D|-2-------2-------2-------2-------|-4-------4-------4-------4-------|
A|-0-------0-------0-------0-------|-4-------4-------4-------4-------|
E|---------------------------------|-2-------2-------2-------2-------|




   A                                 F#m
e|-0-------0-------0-------0-------|-2-------2-------2-------2-------|
B|-2-------2-------2-------2-------|-2-------2-------2-------2-------|
G|-2-------2-------2-------2-------|-2-------2-------2-------2-------|
D|-2-------2-------2-------2-------|-4-------4-------4-------4-------|
A|-0-------0-------0-------0-------|-4-------4-------4-------4-------|
E|---------------------------------|-2-------2-------2-------2-------|




   F               G                 A
e|-1-------1-------3-------3-------|-0-------0-------0-------0-------|
B|-1-------1-------3-------3-------|-2-------2-------2-------2-------|
G|-2-------2-------4-------4-------|-2-------2-------2-------2-------|
D|-3-------3-------5-------5-------|-2-------2-------2-------2-------|
A|-3-------3-------5-------5-------|-0-------0-------0-------0-------|
E|-1-------1-------3-------3-------|---------------------------------|





  PRE-CHORUS


   D               D/C#              D/B
e|-2-------2-------2-------2-------|-2-------------------------------|
B|-3-------3-------3-------3-------|-3-------------------------------|
G|-2-------2-------2-------2-------|-2-------------------------------|
D|-0-------0-------4-------4-------|-4-------------------------------|
A|-----------------4-------4-------|-2-------------------------------|
E|---------------------------------|---------------------------------|




   D               D/C#              D/B             D/A
e|-2-------2-------2-------2-------|-2-------2-------2-------2-------|
B|-3-------3-------3-------3-------|-3-------3-------3-------3-------|
G|-2-------2-------2-------2-------|-2-------2-------2-------2-------|
D|-0-------0-------4-------4-------|-4-------4-------4-------4-------|
A|-----------------4-------4-------|-2-------2-------0-------0-------|
E|---------------------------------|---------------------------------|




   Am/C            Am/B              Am              Am/G
e|-0-------0-------0-------0-------|-0-------0-------0-------0-------|
B|-1-------1-------1-------1-------|-1-------1-------1-------1-------|
G|-2-------2-------2-------2-------|-2-------2-------2-------2-------|
D|-2-------2-------2-------2-------|-2-------2-------2-------2-------|
A|-3-------3-------2-------2-------|-0-------0-----------------------|
E|---------------------------------|-----------------3-------3-------|




   D                                 E
e|-2-------2-------2-------2-------|-0-------0-------0-------0-------|
B|-3-------3-------3-------3-------|-0-------0-------0-------0-------|
G|-2-------2-------2-------2-------|-1-------1-------1-------1-------|
D|-0-------0-------0-------0-------|-2-------2-------2-------2-------|
A|---------------------------------|-2-------2-------2-------2-------|
E|---------------------------------|-0-------0-------0-------0-------|





  CHORUS


   G               D/A               Em
e|-3-------3-------2-------2-------|-0-------0-------0-------0-------|
B|-3-------3-------3-------3-------|-0-------0-------0-------0-------|
G|-4-------4-------2-------2-------|-0-------0-------0-------0-------|
D|-5-------5-------0-------0-------|-2-------2-------2-------2-------|
A|-5-------5-------0-------0-------|-2-------2-------2-------2-------|
E|-3-------3-----------------------|-0-------0-------0-------0-------|




   G               D/A               Em
e|-3-------3-------2-------2-------|-0-------0-------0-------0-------|
B|-3-------3-------3-------3-------|-0-------0-------0-------0-------|
G|-4-------4-------2-------2-------|-0-------0-------0-------0-------|
D|-5-------5-------0-------0-------|-2-------2-------2-------2-------|
A|-5-------5-------0-------0-------|-2-------2-------2-------2-------|
E|-3-------3-----------------------|-0-------0-------0-------0-------|




   G               D/A               Em
e|-3-------3-------2-------2-------|-0-------0-------0-------0-------|
B|-3-------3-------3-------3-------|-0-------0-------0-------0-------|
G|-4-------4-------2-------2-------|-0-------0-------0-------0-------|
D|-5-------5-------0-------0-------|-2-------2-------2-------2-------|
A|-5-------5-------0-------0-------|-2-------2-------2-------2-------|
E|-3-------3-----------------------|-0-------0-------0-------0-------|




   D                                 E
e|-2-------2-------2-------2-------|-0-------0-------0-------0-------|
B|-3-------3-------3-------3-------|-0-------0-------0-------0-------|
G|-2-------2-------2-------2-------|-1-------1-------1-------1-------|
D|-0-------0-------0-------0-------|-2-------2-------2-------2-------|
A|---------------------------------|-2-------2-------2-------2-------|
E|---------------------------------|-0-------0-------0-------0-------|





  INTERLUDE


   A               C#m/G#            F#m
e|-0-------0-------4-------4-------|-2-------2-------2-------2-------|
B|-2-------2-------5-------5-------|-2-------2-------2-------2-------|
G|-2-------2-------6-------6-------|-2-------2-------2-------2-------|
D|-2-------2-------6-------6-------|-4-------4-------4-------4-------|
A|-0-------0-------4-------4-------|-4-------4-------4-------4-------|
E|-----------------4-------4-------|-2-------2-------2-------2-------|




   A               C#m/G#            F#m
e|-0-------0-------4-------4-------|-2-------2-------2-------2-------|
B|-2-------2-------5-------5-------|-2-------2-------2-------2-------|
G|-2-------2-------6-------6-------|-2-------2-------2-------2-------|
D|-2-------2-------6-------6-------|-4-------4-------4-------4-------|
A|-0-------0-------4-------4-------|-4-------4-------4-------4-------|
E|-----------------4-------4-------|-2-------2-------2-------2-------|




   A               C#m/G#            F#m
e|-0-------0-------4-------4-------|-2-------2-------2-------2-------|
B|-2-------2-------5-------5-------|-2-------2-------2-------2-------|
G|-2-------2-------6-------6-------|-2-------2-------2-------2-------|
D|-2-------2-------6-------6-------|-4-------4-------4-------4-------|
A|-0-------0-------4-------4-------|-4-------4-------4-------4-------|
E|-----------------4-------4-------|-2-------2-------2-------2-------|




   F               G                 A               C#m/G#
e|-1-------1-------3-------3-------|-0-------0-------4-------4-------|
B|-1-------1-------3-------3-------|-2-------2-------5-------5-------|
G|-2-------2-------4-------4-------|-2-------2-------6-------6-------|
D|-3-------3-------5-------5-------|-2-------2-------6-------6-------|
A|-3-------3-------5-------5-------|-0-------0-------4-------4-------|
E|-1-------1-------3-------3-------|-----------------4-------4-------|





  CHORUS


   G               D/C               Em
e|-3-------3-------2-------2-------|-0-------0-------0-------0-------|
B|-3-------3-------3-------3-------|-0-------0-------0-------0-------|
G|-4-------4-------2-------2-------|-0-------0-------0-------0-------|
D|-5-------5-------0-------0-------|-2-------2-------2-------2-------|
A|-5-------5-------0-------0-------|-2-------2-------2-------2-------|
E|-3-------3-----------------------|-0-------0-------0-------0-------|




   G               D/C               Em
e|-3-------3-------2-------2-------|-0-------0-------0-------0-------|
B|-3-------3-------3-------3-------|-0-------0-------0-------0-------|
G|-4-------4-------2-------2-------|-0-------0-------0-------0-------|
D|-5-------5-------0-------0-------|-2-------2-------2-------2-------|
A|-5-------5-------0-------0-------|-2-------2-------2-------2-------|
E|-3-------3-----------------------|-0-------0-------0-------0-------|




   G               D/C               Em
e|-3-------3-------2-------2-------|-0-------0-------0-------0-------|
B|-3-------3-------3-------3-------|-0-------0-------0-------0-------|
G|-4-------4-------2-------2-------|-0-------0-------0-------0-------|
D|-5-------5-------0-------0-------|-2-------2-------2-------2-------|
A|-5-------5-------0-------0-------|-2-------2-------2-------2-------|
E|-3-------3-----------------------|-0-------0-------0-------0-------|




   D                                 E
e|-2-------2-------2-------2-------|-0-------0-------0-------0-------|
B|-3-------3-------3-------3-------|-0-------0-------0-------0-------|
G|-2-------2-------2-------2-------|-1-------1-------1-------1-------|
D|-0-------0-------0-------0-------|-2-------2-------2-------2-------|
A|---------------------------------|-2-------2-------2-------2-------|
E|---------------------------------|-0-------0-------0-------0-------|





  OUTRO


   G               D/C               Em
e|-3-------3-------2-------2-------|-0-------0-------0-------0-------|
B|-3-------3-------3-------3-------|-0-------0-------0-------0-------|
G|-4-------4-------2-------2-------|-0-------0-------0-------0-------|
D|-5-------5-------0-------0-------|-2-------2-------2-------2-------|
A|-5-------5-------0-------0-------|-2-------2-------2-------2-------|
E|-3-------3-----------------------|-0-------0-------0-------0-------|




   G               D/C               Em
e|-3-------3-------2-------2-------|-0-------0-------0-------0-------|
B|-3-------3-------3-------3-------|-0-------0-------0-------0-------|
G|-4-------4-------2-------2-------|-0-------0-------0-------0-------|
D|-5-------5-------0-------0-------|-2-------2-------2-------2-------|
A|-5-------5-------0-------0-------|-2-------2-------2-------2-------|
E|-3-------3-----------------------|-0-------0-------0-------0-------|




   G               D/C               Em
e|-3-------3-------2-------2-------|-0-------0-------0-------0-------|
B|-3-------3-------3-------3-------|-0-------0-------0-------0-------|
G|-4-------4-------2-------2-------|-0-------0-------0-------0-------|
D|-5-------5-------0-------0-------|-2-------2-------2-------2-------|
A|-5-------5-------0-------0-------|-2-------2-------2-------2-------|
E|-3-------3-----------------------|-0-------0-------0-------0-------| ....

            
            
Suggest correction
Creating personal tab
Creating personal tab
You can edit any tab online and save it as your Personal.

You can edit, replace or remove any tab part or add personal notes – all changes will be seen only by you.

Personal tabs can be accessed anytime from any device, even offline.
Learn more »
Give kudos to tab author, rate the tab!
1 2 3 4 5
comments
print report bad tab
guest
You may want to rate the tab now too:
select rating
Wanna post a correction for this tab? Suggest correction