Oops, an error
Loading. Please wait.

Dress Us Up tab

2,009 views 1 this week
no commentswrite comment
1 2 3 4 5
3 more votes to show rating
add to favorites
×
Save as Personal and add changes to this tab that will be seen only by you. Learn more ›
×
You can save this tab as Personal to edit and correct it or add notes. All changes will be seen only by you. Learn more »
launch autoscroll
font size
0
reset
how to read this tab
guitar tuner
edit
Autoscroll
slow
fast
+/-
esc
set tempo
stop
Author
John Mark McMillan
Dress us up
From "The Medicine"
Tabbed by thatchadmiller (Twitter)


110 BPM

Intro: C  F


Verse 1
C                                             
Dress us up in Your righteousness
F                                      
Bring us in with a ring and a kiss
                    Am7
When You walk into the room You know I can't resist
             Gsus                                         F
Every bottle of perfume always ends up on the floor in a mess


Verse 2
C
You make us sparkle and You make us shine
         F
Like stars who sing on Your chorus lines
Am7
Through space and time we'll harmonize
Gsus                                         F              C
Where deep meets deep like the ocean meets the sky         Yeah


Pre-Chorus
                F   F5/B  F
The sun and the moon
                                      C
They come out of their grave just for You
F
The dead man and the cynical too, they're coming out of their grave
                  G
And it's just for you


Chorus
F
Cause the love of God is stronger
C
The love of God is stronger
G
The love of God is stronger than the power of death

F
Cause the love of God is stronger
C
The love of God is stronger
Dm7
The love of God is stronger
          G
Than the power of death


Verse 3
Dress us up in the blood of a Son
Who opened up His veins so that we could overcome
Hell and the grave in the power of His love
After three dark days He showed us how it's done
And He still does

Verse 2


Pre-Chorus
Chorus

Bridge/Outro
C
His love is stronger, stronger. His love is stronger, stronger
              F
His love is stronger, stronger. His love is stronger, stronger

(repeat the bridge in C multiple times. Once it kicks in, then switch 
between the C & F for 4 measures each)




Verse - Over and over, dotted 1/8th for the entire song
e|---------------------------------------------------------------------|
B|---------(8)---------------8--6--6--5--------------------------------|
G|--7h9-9---------------Gtr2-9--7--7--5--------------------------------|
D|---------------------------------------------------------------------|
A|---------------------------------------------------------------------|
E|---------------------------------------------------------------------|


"When you walk into the room"
e|---------------------------------------------------------------------|
B|---------------------------------------------------------------------|
G|--5-7s9-7-5-5~~~~---5-7s9-7-5-4-----------0h2h4-0-2------------------|
D|---------------------------------5--0----------------3---------------|
A|--------------------------------------------------------3------------|
E|---------------------------------------------------------------------|



For the pre-chorus and chorus, I play the F and G chords in the D position
    F   F5/B  C   G   Dm
e|------------8-------5--|    
B|--6---6-----5---8---6--|     
G|--5---4-----5---7---7--|   
D|--3---3-----5---5---7--|    
A|--3---3-----x---5---x--|     
E|-----------------------|     


Bridge/Outro
e|--12~~~13--10~~~---12~~~13--8>10-------------------------------------|
B|---------------------------------------------------------------------|
G|---------------------------------------------------------------------|
D|---------------------------------------------------------------------|
A|---------------------------------------------------------------------|
E|---------------------------------------------------------------------|




If you have any input or corrections, check out my blog for more info and 
let me know if you have any songs you need help with. God bless!

            
            
Suggest correction
Creating personal tab
Creating personal tab
You can edit any tab online and save it as your Personal.

You can edit, replace or remove any tab part or add personal notes – all changes will be seen only by you.

Personal tabs can be accessed anytime from any device, even offline.
Learn more »
Give kudos to tab author, rate the tab!
1 2 3 4 5
comments
print report bad tab
guest
You may want to rate the tab now too:
select rating
Wanna post a correction for this tab? Suggest correction