Oops, an error
Loading. Please wait.

Dreaming With A Broken Heart tab

version 2
version 2

Whole song

Interactive

182,712 views 108 this week
4 commentsread comments
1 2 3 4 5
x 38
add to favorites
×
Save as Personal and add changes to this tab that will be seen only by you. Learn more ›
×
You can save this tab as Personal to edit and correct it or add notes. All changes will be seen only by you. Learn more »
launch autoscroll
font size
0
reset
how to read this tab
guitar tuner
backing track
0:00
0:00
edit
Autoscroll
slow
fast
+/-
esc
set tempo
stop
-------------------------------------------------------------------------------
                             Dreaming with a Broken Heart - John Mayer
-------------------------------------------------------------------------------
Tabbed by: Dr. No
Email: wookieownsall@gmail.com

Tuning: EADGBe

[Piano melody]
(let all notes ring out)

e|------3--------3--------3--------3------------------------------------------|
B|----3---3----5---5----5---5----5---3----------------------------------------|
G|--4--------6--------5--------5----------------------------------------------|
D|----------------------------------------------------------------------------|
A|----------------------------------------------------------------------------|
E|----------------------------------------------------------------------------|

[Chorus]
  was  she    real-------ly--------|     here?
e|---------------------------------|
B|-3----3------3---------3------3--|
G|-0----2------0---------0------0--|
D|-2----0------0---------0------2--|
A|-2----x------x---------2------3--|
E|-0----2------3-------------------|

   Is   she     stand--ing    in       my     room?
e|----------------------------------------------------------------------------|
B|----------------3----3------3---------3------3------------------------------|
G|----------------0----2------0---------0------0------------------------------|
D|----------------2----0------0---------0------3------------------------------|
A|----------------2----x------x---------2------2------------------------------|
E|----------------0----2------3-----------------------------------------------|

    No, she's  not
e|----------------------------------------------------------------------------|
B|---------------3------------------------------------------------------------|
G|---------------0------------------------------------------------------------|
D|---------------0------------------------------------------------------------|
A|---------------2------------------------------------------------------------|
E|----------------------------------------------------------------------------|

  Cause she's  gone   gone  gone  gone  gone
e|----------------------------------------------------------------------------|
B|---------------3-----3-----3----1-----3-------------------------------------|
G|---------------0-----0-----0----0-----0-------------------------------------|
D|---------------x-----x-----x----x-----0-------------------------------------|
A|---------------3-----2-----1----0-----x-------------------------------------|
E|--------------------------------------3-------------------------------------|

[Piano melody]

[Chorus]

[Guitar fill in the chorus]
(this whole lick is volume swelled in)

          |--|        |--|        |---------------------------------------------|
e|--2--2--------2--2--------2--2-------2----------------------------------------|
B|--3--3--------3--3--------3--3-------3----------------------------------------|
G|--------4--4--------4--4--------4--4------------------------------------------|
D|------------------------------------------------------------------------------|
A|------------------------------------------------------------------------------|
E|------------------------------------------------------------------------------|

[Bridge Melody] 
(2:07)

e|---------3---5---------------------------------------------3--5-------------|
B|-------3-----6---5-------5----5---3----------------------3----x---6--6------|
G|-4--5--------7-----------5h7--5---4------------2--2/4--5------5---x--5------|
D|-------------------------5----5---5---------5---------------------7--5h7----|
A|-----------------------------------------5----------------------------------|
E|----------------------------------------------------------------------------|

e|----------------------------------------------------------------------------|
B|--5---3---------------------------------------------------------------------|
G|--5---4---------------------------------------------------------------------|
D|--5---5---------------------------------------------------------------------|
A|----------------------------------------------------------------------------|
E|----------------------------------------------------------------------------|

[Interlude]
Gtr. 1 (w/overdrive)

e|----------------------------------------------------------------------------|
B|--10/12~~~~--------------15/10~~~~--------------10/12~~~~-------------------|
G|----------------------------------------------------------------------------|
D|----------------------------------------------------------------------------|
A|----------------------------------------------------------------------------|
E|----------------------------------------------------------------------------|
  Gtr. 2 (w/overdrive)
e|----------------------------------------------------------------------------|
B|---------------------------10h12p10-----------------------------------------|
G|-----12---------------------------------------------------------------------|
D|------------------------12--------------------------------------------------|
A|-/12------------------------------------------------------------------------|
E|----------------------------------------------------------------------------|
  Gtr. 1
e|----------------------------------------------------------------------------|
B|--17/10~~~~--------------10/12~~~~--------------15/10~~~~-------------------|
G|----------------------------------------------------------------------------|
D|----------------------------------------------------------------------------|
A|----------------------------------------------------------------------------|
E|----------------------------------------------------------------------------|
  Gtr. 2
e|----------------------------------------------------------------------------|
B|-10h12p10h12p10------12p10--------12---12--------10h12p10-------------------|
G|---------------------------12\----------------------------------------------|
D|-------------------------------/12-------12----12---------------------------|
A|----------------------------------------------------------------------------|
E|----------------------------------------------------------------------------|
  Gtr. 1
e|----------------------------------------------------------------------------|
B|--8/15\12~~~~--------------10/8\10/5~~~~------------------------------------|
G|----------------------------------------------------------------------------|
D|----------------------------------------------------------------------------|
A|----------------------------------------------------------------------------|
E|----------------------------------------------------------------------------|
   Gtr. 2
e|----------------------------------------------------------------------------|
B|---------12------12-------12b--------12-------------------------------------|
G|----------------------------------------12----------------------------------|
D|------12------12-------12------12-----------12/-----------------------------|
A|----------------------------------------------------------------------------|
E|----------------------------------------------------------------------------|

[Bridge]

 Now, do I have to fall  a sleep with roses in my hand?
e|-------------------------------------------------------------------------------------|
B|-------------------------------------------------------------------------------------|
G|-------------------------------------------------------------------------------------|
D|------------------------------------5---7/9~~~---------------------------------------|
A|---------------------------5---7~~~--------------------------------------------------|
E|-------------------------------------------------------------------------------------|

[Chorus]

[Piano melody]
(to the end)

************************************

| x  Mute note
| h  Hammer-on
| /  Slide up
| ~  Vibrato
| p  Pull-off
| \  Slide down
| b  Bend 

************************************

            
            
Suggest correction
Creating personal tab
Creating personal tab
You can edit any tab online and save it as your Personal.

You can edit, replace or remove any tab part or add personal notes – all changes will be seen only by you.

Personal tabs can be accessed anytime from any device, even offline.
Learn more »
comments
print report bad tab
4 comments total. Showing first comments.
+3 reply
SEANDOYLE8 10 Aug 10, 2009 05:08 AM

YO

+1 reply
pusiencja 32 Aug 28, 2009 05:20 PM

perfect, thanks :)

0 reply
thegoldendon 10 Dec 22, 2009 08:23 AM

nice dude.....................

guest
You may want to rate the tab now too:
select rating
Wanna post a correction for this tab? Suggest correction