Oops, an error
Loading. Please wait.

How Much It Hurts tab

version 1
version 1

Whole song

2,476 views 1 this week
10 commentsread comments
1 2 3 4 5
x 3
add to favorites
×
Save as Personal and add changes to this tab that will be seen only by you. Learn more ›
×
You can save this tab as Personal to edit and correct it or add notes. All changes will be seen only by you. Learn more »
launch autoscroll
font size
0
reset
how to read this tab
guitar tuner
edit
Autoscroll
slow
fast
+/-
esc
set tempo
stop
Author
Difficulty
-------------------------------------------------------------------------------
                             How Much it Hurts - John Mayer
-------------------------------------------------------------------------------
Tabbed by: Joel C.
Email: soccerman497ball@yahoo.com

I did this song all my ear. I was listening to the song on john mayers myspace which is 
check out the song. its a great song.

intro-

e|---------------------------------------------------------------------------|
B|---------------------------------------------------------------------------|
G|---------9---------------9------------9------------9-----------9---------9-|
D|-------0---0----------0----0--------0----0-------0---0-------0---0------0--|
A|-----0-------0-----0---------0----0--------0---0-------0---0-------0---0---|
E|--10------------10-------------9-------------9-----------7-----------7-----|

e|---------------------------------------------------------------------------|
B|---------------------------------------------------------------------------|
G|------------9-----------9-----------9-----------9-----------9-----------9--|
D|--0-------0---0-------0---0-------0---0-------0---0-------0---0-------0----|
A|----0---0-------0---0-------0---0-------0---0-------0---0-------0---0------|
E|------5-----------5----------10-----------10----------9-----------9--------|           
                  Speak..........Speak your mind

e|-----------------------------------------------------------------------------|
B|-----------------------------------------------------------------------------|
G|-----------9-----------9-----------9-----------9------------9------------9---|
D|-0-------0---0-------0---0-------0---0-------0---0--------0---0--------0-----|
A|---0---0-------0---0-------0---0-------0---0-------0----0-------0----0-------|
E|-----7-----------7-----------5-----------5-----------10-----------10---------|
                                                       and wait.....

e|------------------------------------------------------------------0--------|
B|---------------------------------------------------------------------------|
G|------------9-----------9-----------9-----------9-----------9--------------|
D|--0-------0---0-------0---0-------0---0-------0---0-------0---0------------|
A|----0---0-------0---0-------0---0-------0---0-------0---0-------0----------|
E|------9-----------9-----------7-----------7-----------5--------------------|
  wait your turn.....

e|-------------------------------------------0--------------------------------|
B|----------------------------------------------------------------------------|
G|---------9------------9------------9-----------------9-----------9----------|
D|-------0---0--------0---0--------0----0------------0---0-------0---0--------|
A|-----0-------0----0-------0----0--------0--------0-------0---0-------0------|
E|--10-----------10-----------10-----------------9-----------9-----------9----|
    You say there nothing with being proud......

e|------------0----------------------------------------0----------------------|
B|----------------------------------------------------------------------------|
G|-----9-----------------9-----------9-----------9----------------------------|
D|---0---0-------------0---0-------0---0-------0---0--------------------------|
A|-0-------0---------0-------0---0-------0---0-------0------------------------|
E|-----------------7-----------7-----------7----------------------------------|
                   So heres the dose.....

e|-----------------------------------------0----------------------------------|
B|----------------------------------------------------------------------------|
G|---------9------------9------------9--------------9-----------9-----------9-|
D|-------0---0--------0---0--------0---0----------0---0-------0---0-------0---|
A|-----0-------0----0-------0----0-------0------0-------0---0-------0---0-----|
E|--10-----------10-----------10--------------9-----------9-----------9-------|
    If you're listening...                    If you're listening.........

e|-------0--------------------------------------------------------------------|
B|----------------------------------------------------------------------------|
G|----------------9-------9-----9------9--------------------------------------|
D|--0-------------0-------0-----0------0--------------------------------------|
A|----0-----------0-------0-----0------0--------------------------------------|
E|---------------10 (x7)--9(x7)-7(x7)--5(x7)----------------------------------|
          Chorus- play this ^^^^^^^^ the rest of the time

            
            
Suggest correction
Creating personal tab
Creating personal tab
You can edit any tab online and save it as your Personal.

You can edit, replace or remove any tab part or add personal notes – all changes will be seen only by you.

Personal tabs can be accessed anytime from any device, even offline.
Learn more »
Give kudos to tab author, rate the tab!
1 2 3 4 5
comments
print report bad tab
10 comments total. Showing first comments.
0 reply
tellingtime 10 Jul 16, 2009 08:37 PM

This song is by Just Off Turner (http://www.myspace.com/justoffturner) - Not John Mayer. He only blogged about them (http://blog.myspace.com/johnmayer)and posted this song on his MySpace music player...

0 reply
ustaplayer10 31 Jul 16, 2009 08:47 PM

no. im pretty sure its john mayer.

0 reply
ustaplayer10 31 Jul 16, 2009 09:34 PM

take that back. but it sounds just like john mayer.

guest
You may want to rate the tab now too:
select rating
Wanna post a correction for this tab? Suggest correction