Oops, an error
Loading. Please wait.

Hurt tab

version 2
version 2

Whole song

11,462 views 9 this week
no commentswrite comment
1 2 3 4 5
1 last vote to show rating
add to favorites
×
Save as Personal and add changes to this tab that will be seen only by you. Learn more ›
×
You can save this tab as Personal to edit and correct it or add notes. All changes will be seen only by you. Learn more »
launch autoscroll
font size
0
reset
how to read this tab
guitar tuner
edit
Autoscroll
slow
fast
+/-
esc
set tempo
stop
Author
The Hurt - John Mayer


The rhythm is....

E|--------x------------x------------x------------x--------------|
B|--2---2-x-2----2---2-x-2----2---2-x-2----5---5-x-5------------|
G|--2---2-x-2----4---4-x-4----2---2-x-2----6---7-x-7------------|
D|--2---2-x-2----2---2-x-2----4---4-x-4----5---5-x-5------------|
A|--0-0-0-x---0--x-----x------x-----x------x-----x--------------|
E|--------x------4-4---x---4--2-2---x---2--5-5---x---5----------|

Verse/Chorus
E|---------------------------------------|
B|--2---2---2---5----0---3----2---5------|
G|--2---4---2---6-7--6---5-4--2---7------|
D|--2---2---4---5----4---3----2---6------|
A|--0---x---x---x---/5---x----0--/7------|
E|------4---2---5--------3---------------|


Pre-Chorus  "How do you break....."
E|------------------------------------|
B|--0--0--0-----0--0--0----0---0-0----|
G|--1--7--6-----1--7--7----7---x-x----|
D|--2--7--7-----2--7--7-6--6---7-6----|
A|--0--0--0-----0--0--0--------7-7----|
E|--x--x--x-----x--x--x------0-0-0----|


Bridge  "So long is over....."
E|-------------------------0-------------------|
B|--4--------0--3-----0----0-----0---0---0-----|
G|--6--(6)---4--2-----1-2--1-----x---6---7-----|
D|--4---6----2----5---0----0-----6---6---9-7---|
A|--5---4----3--------2----0-----7---0---7-----|
E|------5------------------------0-------------|

I’m a good man
in a dark room
in a big town
under a full moon
it’s a friday and I’m almost home

I’m in a good place
full of head space
got a brand new pack in my suitcase
but it’s dinner and then it's bed alone
How do you break a mended heart?
I'm bored and want something to do

I wanna fall, fall asleep
asleep in the arms, the arms of a woman
a woman who doesn't, doesn’t deserve my love

I wanna lie, lie to myself
myself and someone else
just to feel something, something that hurts me
the hurt makes me feel alive

Gonna make it, like I need her
gonna miss her the moment I meet her
and it’s only gonna get worse from there

I’ll be rappin' there in the shower
she’ll be here by the end of the hour
I can do better
but I can’t do better now

How do you break a mended heart?
I'm bored and want something to do

I wanna fall, fall asleep
asleep in the arms, the arms of a woman
a woman who doesn’t, doesn’t deserve my love

I wanna lie, lie to myself
myself and someone else
just to feel something, something that hurts me
the hurt makes me feel alive

So long is over
nice to skip the chance you get to know you
why did I think this was true?
Because I wanted to

I wanna fall, fall asleep
asleep in the arms, the arms of a woman
a woman who doesn’t, doesn’t deserve my love

I wanna lie, lie to myself
myself and someone else
just to feel something, something that hurts me
the hurt makes me feel alive

I wanna fall
I wanna kneel
I wanna laugh, cry, say goodbye
beg, lie, cheat and steal

            
            
Suggest correction
Creating personal tab
Creating personal tab
You can edit any tab online and save it as your Personal.

You can edit, replace or remove any tab part or add personal notes – all changes will be seen only by you.

Personal tabs can be accessed anytime from any device, even offline.
Learn more »
Give kudos to tab author, rate the tab!
1 2 3 4 5
comments
print report bad tab
guest
You may want to rate the tab now too:
select rating
Wanna post a correction for this tab? Suggest correction