Oops, an error
Loading. Please wait.

In Your Atmosphere tab

version 2
version 2

Interactive

355,512 views 117 this week
19 commentsread comments
1 2 3 4 5
x 44
add to favorites
×
Save as Personal and add changes to this tab that will be seen only by you. Learn more ›
×
You can save this tab as Personal to edit and correct it or add notes. All changes will be seen only by you. Learn more »
launch autoscroll
font size
0
reset
how to read this tab
guitar tuner
edit
Autoscroll
slow
fast
+/-
esc
set tempo
stop
Author
Difficulty
intermediate
*note:           The launching point for this tab was
                 an earlier version of the song, you can
                 find it here: http://www3.sympatico.ca/g403z/iya.txt


Tuning: E B E F# B E


[Intro/Verse]

e-------*12*--------------------|
b-------*12*-----------0h4v-----|
f#-----0----(0)--0----(0)---0---|
e-------0----------0h2----------|
b-------------------------------|
e-----0--------5----------------|

Occasionally he'll play this:

e-------*12*-----------0h4v-(0)-|
b-------*12*----------(0)-------|
f#-----0----(0)--0--------------|
e-------0----------0h2----------|
b-------------------------------|
e-----0--------5----------------|

"Race to your door..."
"of your bedroom neighborhood..."
"I love you, take a ride..."

e----0---0---0--- ---0---0---|
b----0---0---0--- ---0---0---|
f#--10---9---3--- ---5---7---|
e----9---7---2--- ---5---7---|
b----x---x---x--- ---x---x---|
e----9---7---2--- ---5---7---|


[Interlude I] (between first and second verse)

***note:  there are two beats happening here,
          watch this video to get a handle on the rhythm (0:40 in, just the first part):
          http://www.youtube.com/watch?v=t5Oo3W_daT0

e-----*12*---- ----5-5-5--5--5--5--4-4--4------------------------------------|
b-----*12*---- ----7-7-7--7--7--7--5-5--5------------------------------------|
f#---0----(0)- ------------------------------7-7-7---7--7--7--5-5--5---------|
e-----0------- ------------------------------5-5-5---5--5--5--4-4--4---------| (x2)
b------------- --------------------------------------------------------------|
e---0--------- --5--------------0--------5-----------------0---------5-------|


[First chorus]

e---0---0---0----------0----0---0---0--0---0--0--- ---0--0---|
b---0---0---0----------0----0---0---0--0---0--0--- ---0--0---|
f#--3--10---9----------5---10---9---5--7---5--7--- ---7--9---|
e---2---9---7----------4----9---7---4--5---4--5--- ---5--7---|
b---x---x---x---(x3)---x----x---x---x--x---x--x--- ---x--x---|
e---2---9---7----------4----9---7---4--5---4--5--- ---5--7---|


[Interlude II] (2:00, between Chorus 1 and Verse 3)

e-----------------------------------------------------------x--x-x----x-x---|
b---5--7--9---12--10---5----------5--7--9---12--10---14---4h5--4-4--4h5-5---|
f#--0--0--0----0---0---0----------0--0--0----0---0----0-----0--0-0----0-0---|
e---0--0--0----x---x---x---(x2)---0--0--0----x---x----x-----0--0-0----0-0---|
b---x--x--x----x---x---x----------x--x--x----x---x----x-----x--x-x----x-x---|
e---0---------10---9---5----------0---------10---9---12-----5--5-5----5-5---|


[Second chorus]

e---0---0---0----------0---0---0---       ---0--0--0--0----------|
b---0---0---0----------0---0---0---       ---0--0--0--0----------|
f#--3--10---9----------5--10---9---       ---5--7--5--7----------|
e---2---9---7----------4---9---7--- (x2)  ---4--5--4--5--(...)---|
b---x---x---x---(x3)---x---x---x---       ---x--x--x--x----------|
e---2---9---7----------4---9---7---       ---4--5--4--5----------|


"Wherever I go..."
"Wherever You go..."              (easier version, if you can't manage the
                                   stretch to the 4th fret on the low e string)

e-----x---x---x---x---            e-----x---x---x---x---|
b-----0---0---0---0---            b-----4---4---4---4---|
f#----9---9---9---9---            f#----5---5---5---5---|
e-----7---7---7---7---            e-----0---0---0---0---|
b-----x---x---4---5---            b-----0---x---4---5---|
e-----7---4---0---0---            e-----x---4---x---x---|


I don't think I'm gonna go to LA anymore
I don't think I'm gonna go to LA anymore
I don't know what it's like to land
And not race to your door
I don't think I'm gonna go to LA anymore

I don't think I'm gonna go to LA anymore
I'm not sure that I ever really could
Hold on to your hotel key
of your bedroom neighborhood
We're sleep walkin' in Hollywood

I'm gonna steer clear
I burn up in your atmosphere
I'm gonna steer clear
Cause I'd die if I saw you
I'd die if I didn't see you there
So I don't think I'm gonna go to LA anymore

I don't think I'm gonna go to LA anymore
I get lost on the boulevard at night
Without your voice to tell me
"I love you, take a ride"
The ten and the two is the loneliest sight

I'm gonna steer clear
I burn up in your atmosphere
I'm gonna steer clear
Cause I'd die if I saw you
I'd die if I didn't see you
I'm gonna steer clear, oh yeah
I burn up in your atmosphere
I'm gonna steer clear
Cause I'd die if I saw you
I'd die if I didn't see you there
See you there

I think I'm gonna stay, gonna stay...
All the street lights say nevermind, nevermind
All the canyon lines say nevermind
Sunset says we see this all the time
Nevermind, never you mind..

Wherever I go
Whatever I do
I wonder where I am
In my relationship to you

Wherever you go
Wherever you are
I watch your life play out (2nd time says: "I watch that pretty life of yours")
In pictures from afar

Ooo Ooooo...



************************************

| x    Dead note
| (n)  Ghost note
| h    Hammer-on

************************************

            
            
Suggest correction
Creating personal tab
Creating personal tab
You can edit any tab online and save it as your Personal.

You can edit, replace or remove any tab part or add personal notes – all changes will be seen only by you.

Personal tabs can be accessed anytime from any device, even offline.
Learn more »
comments
print report bad tab
19 comments total. Showing first comments.
+8 reply
cutmymilk17 50 Aug 07, 2009 08:13 PM

On john mayer where the light is he plays a different variation and it is

e-------*12*--------------------|
e-------*12*--------------------|
b-------*12*--------------------|
f#-----0----(0)-------0h9v------|
e-------0-----------------------|
b------------------5h7----------|
e-----0--------5----------------|

e-------*12*--------------------|
b-------*12*----------0-9v------|
f#-----0----(0)-----------------|
e-------0-----------------------|
b------------------5h7----------|
e-----0--------5----------------|

0 reply
travteak 81 Aug 07, 2009 09:11 PM

thanks, that sounds great!

0 reply
travteak 81 Aug 07, 2009 09:11 PM

thanks that sounds great! (sorry i accidentally posted this in the comments section as well)

guest
You may want to rate the tab now too:
select rating
Wanna post a correction for this tab? Suggest correction