Oops, an error
Loading. Please wait.

In Your Atmosphere tab

version 4
version 4

Interactive

450,377 views 1,140 this week
21 commentsread comments
1 2 3 4 5
x 154
add to favorites
×
Save as Personal and add changes to this tab that will be seen only by you. Learn more ›
×
You can save this tab as Personal to edit and correct it or add notes. All changes will be seen only by you. Learn more »
launch autoscroll
font size
0
reset
how to read this tab
guitar tuner
edit
Autoscroll
slow
fast
+/-
esc
set tempo
stop
Author
Unregistered
Tuning: low to high E B E F# B E
This was tabbed using the Where The Light Is DVD as a guide.
Here’s a video of John’s performance: http://www.youtube.com/watch?v=fMVQ1synlaU


[Intro]

E |---+12-------------------------+12-----------------------------------------|
B |---+12------------0------------+12--------0-----0h9~p7---------------------|
F#|---+12--0---0-----0h9~p7-------+12----0-----0---0--------------------------|
E |--------------0h7------------0--------------0h7----------------------------|
B |---------------------------0-----------------------------------------------|
E |-0--------5--------------0--------------5----------------------------------|

E |---------------------------------------------------------------------------|
B |--------+12---------0---------------------+12--------0-----0---------------|
F#|--------+12----0-----------0h9~p7---------+12---0----------0h9~p7----------|
E |-----0-------0---------0h7--------------0-----0--------0h7-----------------|
B |---0----------------------------------0------------------------------------|
E |-0---------------5------------------0-------------5------------------------|

E |------------------------------------------+12------------------------------|
B |--------+12---------0---------------------+12--------0-----0h9~p7----------|
F#|--------+12----0-----------0h9~p7---------+12---0--------------------------|
E |-----0-------0---------0h7--------------0-----0--------0h7-----------------|
B |---0----------------------------------0------------------------------------|
E |-0---------------5------------------0-------------5------------------------|

E |----------------------------------------------------------------0----------|
B |--------+12---------0------0---------------+12-------0---------------------|
F#|--------+12----0-----------0h9~p7----------+12---0---------0h9-------------|
E |-----0-------0---------0h7--------------0------0-------0h7-----------------|
B |---0----------------------------------0------------------------------------|
E |-0---------------5------------------0--------------5-----------------------|


[Verse]

 “I don’t think I’m gonna go to LA anymore…”
E |---+12--------0------------+12----------------0----------------------------|
B |---+12--------0------------+12---------------------------------------------|
F#|---+12--0-----0------------+12--0---0-----0h9------------------------------| x2
E |--------------0-----------------------0h7----------------------------------|
B |--------------x------------------------------------------------------------|
E |-0--------5---5--------0-0--------5----------------------------------------|
                  strum

 “I don’t know what it’s like to land with…”
E |---+12--------0----------0---0---0--0--0----------0--0--0--0---------------|
B |---+12--------0----------0---0---0--0--0----------0--0--0--0---------------|
F#|---+12--0-----0----------10--0---9--0--3----------7--7--9--9---------------|
E |--------------0----------9---0---7--0--2----------5--5--7--7---------------|
B |--------------x----------x---0---x--0--x----------x--x--x--x---------------|
E |-0--------5---5----------9---0---7--0--2----------5--5--7--7---------------|
                   strum                   strum

[Verse]

E |---+12-------5-5-5-5-5----4-4-----0-0--0--0--0----0-0----------------------|
B |---+12-------7-7-7-7-7----5-5-----0-0--0--0--0----0-0----------------------|
F#|---+12--0--------0--------x-x-----7-7--7--7--7----5-5----------------------|
E |-----------------0--------0-0-----5-5--5--5--5----4-4----------------------|
B |--------------------------0-0---------------------0-0----------------------|
E |-0--------5------------0-------5----------------0--------------------------|

E |---5-5-5-5--5----4-4----------------0--------------------------------------|
B |---7-7-7-7--7----5-5----------------0--------------------------------------|
F#|-------0---------x-x-----0------0h9----------------------------------------|
E |-------0---------0-0--------0h7--------------------------------------------|
B |-----------------0-0-------------------------------------------------------|
E |-5-------------0------5----------------------------------------------------|


[Chorus]

 “I’m gonna steer clear…”
E |-0--------0---0--0----0-----------------------------------------------------|
B |-0--------0---0--0----0-----------------------------------------------------|
F#|-3--------10--10-10---9-----------------------------------------------------|
E |-2--------9---9--9----7-----------------------------------------------------|
B |-x--------x---x--x----x-----------------------------------------------------|
E |-2--------9---9--9----7-----------------------------------------------------|
     strum                 strum

 “Burn up in your atmosphere…”
E |-0--------0---0--0----0-----------------------------------------------------|
B |-0--------0---0--0----0-----------------------------------------------------|
F#|-3--------10--10-10---9-----------------------------------------------------|
E |-2--------9---9--9----7-----------------------------------------------------|
B |-x--------x---x--x----x-----------------------------------------------------|
E |-2--------9---9--9----7-----------------------------------------------------|
    strum                 strum

 “Cause I’d die if I saw you…”
E |-----------0---0---0--0------0--0----0--0------0--0--0--0----|
B |-----------0---0---0--0------0--0----0--0------0--0--0--0----|
F#|-5---------10--10--9--9------5--7----5--7------7--7--9--9----|
E |-4---------9---9---7--7------4--5----4--5------5--5--7--7----|
B |-x---------x---x---x--x------x--x----x--x------x--x--x--x----|
E |-4---------9---9---7--7------5--5----5--5------5--5--7--7----|
    strum


[Bridge]

E |-0-0-0---0---------0---------0---------------------------------------------|
B |-5-7-9---12--------10--------5---------------------------------------------|
F#|-x-x-x---10--------10--------3---------------------------------------------| x2
E |-0-0-0---0---------0---------0---------------------------------------------|
B |-0-0-0---x---------x---------x---------------------------------------------|
E |-0-0-0---10--------9---------5---------------------------------------------|
              strum     strum     strum

E |--0----0--0--------0----0--0-----------------------------------------------|
B |--4/5--5--4--------4/5--5--5-----------------------------------------------|
F#|--3----3--3--------3----3--3-----------------------------------------------|
E |--0----0--0--------0----0--0-----------------------------------------------|
B |--x----x--x--------x----x--x-----------------------------------------------|
E |--5----5--5--------5----5--5-----------------------------------------------|
              strum


[Chorus]

 “I’m gonna steer clear…”
E |-0--------0---0--0----0-----------------------------------------------------|
B |-0--------0---0--0----0-----------------------------------------------------|
F#|-3--------10--10-10---9-----------------------------------------------------|
E |-2--------9---9--9----7-----------------------------------------------------|
B |-x--------x---x--x----x-----------------------------------------------------|
E |-2--------9---9--9----7-----------------------------------------------------|
     strum                 strum

 “Burn up in your atmosphere…”
E |-0--------0---0--0----0-----------------------------------------------------|
B |-0--------0---0--0----0-----------------------------------------------------|
F#|-3--------10--10-10---9-----------------------------------------------------|
E |-2--------9---9--9----7-----------------------------------------------------|
B |-x--------x---x--x----x-----------------------------------------------------|
E |-2--------9---9--9----7-----------------------------------------------------|
    strum                 strum

 “Cause I’d die if I saw you…”
E |-----------0---0---0--0------0--0----0--0------0--0--0--0----|
B |-----------0---0---0--0------0--0----0--0------0--0--0--0----|
F#|-5---------10--10--9--9------5--7----5--7------7--7--9--9----|
E |-4---------9---9---7--7------4--5----4--5------5--5--7--7----|
B |-x---------x---x---x--x------x--x----x--x------x--x--x--x----|
E |-4---------9---9---7--7------5--5----5--5------5--5--7--7----|
    strum

        
**********************

| /  slide up
| \  slide down
| h  hammer-on
| p  pull-off
| ~  vibrato
| +  harmonic
| x  Mute note

**********************

            
            
Suggest correction
Creating personal tab
Creating personal tab
You can edit any tab online and save it as your Personal.

You can edit, replace or remove any tab part or add personal notes – all changes will be seen only by you.

Personal tabs can be accessed anytime from any device, even offline.
Learn more »
comments
print report bad tab
21 comments total. Showing first comments.
0 reply
yourxtuesday 966 Aug 25, 2009 12:30 AM

THANK YOU FOR DOING THIS.
could you maybe transcribe the second half of the song as well? that would make my life.

+50 reply
swingfire 10 Aug 26, 2009 11:20 AM

Everyone, the "Wherever I Go" outro is the following...

x0254x
40254x
x4254x
04254x

-1 reply
Hurleysurf 10 Aug 27, 2009 02:02 PM

Nice tab man, helped alot

guest
Wanna post a correction for this tab? Suggest correction