Oops, an error
Loading. Please wait.

Rosie solo tab

version 1
version 1

Solo

  • The tab for the intro lick, the intro lick with va... Show more

Whole song

  • Tab for "Rosie" containing all 3 guitar parts (chords, solos, bass).
3,829 views 93 this week
no commentswrite comment
1 2 3 4 5
x 4
add to favorites
×
Save as Personal and add changes to this tab that will be seen only by you. Learn more ›
×
You can save this tab as Personal to edit and correct it or add notes. All changes will be seen only by you. Learn more »
launch autoscroll
font size
0
reset
how to read this tab
guitar tuner
edit
Autoscroll
slow
fast
+/-
esc
set tempo
stop
Author
Difficulty
John Mayer - Rosie

[Intro]
e|---------------------------------------------------------------------------------------------------10-10---|
B|--------10b12-10-------8-8---8/10---------------------8-8----10b12--10--10b12r10-10b12r10p8-10b12----------|
G|-------------------7/9-----9-------7/9--7~--------7/9------7-----------------------------------------------|
D|-----------------------------------------------------------------------------------------------------------|
A|-----------------------------------------------------------------------------------------------------------|
E|-----------------------------------------------------------------------------------------------------------|

e|---12------------------------------------------------------------------------------------------------------|
B|------10/12------------------------------------------------------------------------------------------------|
G|-----------------------------------------------------------------------------------------------------------|
D|-----------------------------------------------------------------------------------------------------------|
A|-----------------------------------------------------------------------------------------------------------|
E|-----------------------------------------------------------------------------------------------------------|

[Refrain]
e|-----------------------------------------------------------10----------------------------------------10-10-|
B|--------10b12-10-------8-8---8/10---------------------8-8------10b12--10--10b12r10-10b12r10p8-10b12--------|
G|-------------------7/9-----9-------7/9--7~--------7/9------------------------------------------------------|
D|-----------------------------------------------------------------------------------------------------------|
A|-----------------------------------------------------------------------------------------------------------|
E|-----------------------------------------------------------------------------------------------------------|

e|-----12-14-12--10-12-10------------------------------------------------------------------------------------|
B|-------------------------12-15-12/10-----------------------------------------------------------------------|
G|-----------------------------------------------------------------------------------------------------------|
D|-----------------------------------------------------------------------------------------------------------|
A|-----------------------------------------------------------------------------------------------------------|
E|-----------------------------------------------------------------------------------------------------------|



************************************

| p  Pull-off
| r  Release
| b  Bend
| /  Slide up
| ~  Vibrato

************************************

            
            
Suggest correction
Creating personal tab
Creating personal tab
You can edit any tab online and save it as your Personal.

You can edit, replace or remove any tab part or add personal notes – all changes will be seen only by you.

Personal tabs can be accessed anytime from any device, even offline.
Learn more »
comments
print report bad tab
guest
You may want to rate the tab now too:
select rating
Wanna post a correction for this tab? Suggest correction