Oops, an error
Loading. Please wait.

Rosie solo tab

version 2
version 2

Solo

  • The tab for the intro lick, the intro lick with va... Show more

Whole song

  • Tab for "Rosie" containing all 3 guitar parts (chords, solos, bass).
1,393 views 21 this week
no commentswrite comment
1 2 3 4 5
1 last vote to show rating
add to favorites
×
Save as Personal and add changes to this tab that will be seen only by you. Learn more ›
×
You can save this tab as Personal to edit and correct it or add notes. All changes will be seen only by you. Learn more »
launch autoscroll
font size
0
reset
how to read this tab
guitar tuner
edit
Autoscroll
slow
fast
+/-
esc
set tempo
stop
Author
Difficulty
intermediate
About this tab version
The tab for the intro lick, the intro lick with variations that is played after the first chorus, and the first solo from the studio version of Rosie. Was this info helpful? Yes No
[Intro Chords]
e|-------------------0--2----------------------------------------------------|
B|-----5--7----------1--3----------------------------------------------------|
G|-----5--7-----OR---0--2----------------------------------------------------|
D|-----5--7----------0--0----------------------------------------------------|
A|-----3--5------------------------------------------------------------------|
E|---------------------------------------------------------------------------|

e|---------------------------------------------------------------------------|
B|---------------------------------------------------------------------------|
G|--14b16r14-14-------1212---14----------------------------------------------|
D|---------------12/14----14---14p12-----------------------------------------|
A|---------------------------------------------------------------------------|
E|---------------------------------------------------------------------------|

e|---------------------------------------------------------------------------|
B|--------------------------------------------12-15-15---17-12~-12/10--------|
G|------12~--14b16r14-14-14b16r14b16r14-12-14--------------------------------|
D|-12/14---14----------------------------------------------------------------|
A|---------------------------------------------------------------------------|
E|---------------------------------------------------------------------------|

[Lick after Chorus]
e|---------------------------------------------------------------------------|
B|---------------------------------------------------------------------------|
G|--14b16r14-14-------1212---14----------------------------------------------|
D|---------------12/14----14---14p12-----------------------------------------|
A|---------------------------------------------------------------------------|
E|---------------------------------------------------------------------------|

e|-------------------------------------------------------------------------------------|
B|----------15----------------------------------12-15-15---17-19-17-15-17-15--12-15----|
G|------1212--14b16r14-14-14b16r14b16r14-12-14--------------------------------------14-|
D|-12/14-------------------------------------------------------------------------------|
A|-------------------------------------------------------------------------------------|
E|-------------------------------------------------------------------------------------|

[First Solo]
e|---------------------------------------------------------------------------|
B|---------------------------------------------------------------------------|
G|-12-14-16--16-14-16----12~------12-16-14--14-------------------------------|
D|--------------------14-------14--------------16-14-12-12-------------------|
A|---------------------------------------------------------------------------|
E|---------------------------------------------------------------------------|

e|---------------------------------------------------------------------------|
B|----------------------------15b17-15-13-12---------------------------------|
G|----12-14-16--16-14-16-(16)----------------14b16---------------------------|
D|-14----------------------------------------------16-14-12-12---------------|
A|---------------------------------------------------------------------------|
E|---------------------------------------------------------------------------|

e|------------------------------------------------------------------------------|
B|------------------------------------------------------------------------------|
G|------------------------------------------------------------------------------|
D|-------14-12-----------------12-9--------------------12--14-12b13----------12-|
A|-12/14-------14-12-----10/12------12-9-------------10-------------12-12/14----|
E|-------------------10------------------10-10-----10---------------------------|

e|---------------------------------------------------------------------------|
B|--------------------------15b17-17-15-15-13-13-----------------------------|
G|-------12----12-14---(14)----------------------14/16-16--------------------|
D|-12/14----14--------------------------------------------12-14-16-----------|
A|---------------------------------------------------------------------------|
E|---------------------------------------------------------------------------|



************************************

| r    Release
| b    Bend
| p    Pull-off
| /    Slide up
| ~    Vibrato
| (n)  Ghost note
 

************************************

            
            
Suggest correction
Creating personal tab
Creating personal tab
You can edit any tab online and save it as your Personal.

You can edit, replace or remove any tab part or add personal notes – all changes will be seen only by you.

Personal tabs can be accessed anytime from any device, even offline.
Learn more »
Give kudos to tab author, rate the tab!
1 2 3 4 5
comments
print report bad tab
guest
You may want to rate the tab now too:
select rating
Wanna post a correction for this tab? Suggest correction