Oops, an error
Loading. Please wait.

Taking On Water tab

version 2
version 2

Whole song

  • Tabs from this version https://www.youtube.com/watch?v=fkvkST67kFM.
487 views 6 this week
1 commentread comment
1 2 3 4 5
3 more votes to show rating
add to favorites
×
Save as Personal and add changes to this tab that will be seen only by you. Learn more ›
×
You can save this tab as Personal to edit and correct it or add notes. All changes will be seen only by you. Learn more »
launch autoscroll
font size
0
reset
how to read this tab
guitar tuner
edit
Autoscroll
slow
fast
+/-
esc
set tempo
stop
[Intro]

D#|---------------------------------------------------------------------------|
A#|9-------9-------12------12p9---------------------10------10p9--------------|
F#|9-------9-------9-------9--------9-------9-------9-------9-----------------|
C#|9-------9-------9-------9--------9-------9-------11----11------------------|
G#|----------------12----12-------------------------9---9---------------------|
D#|0-----0--------------------------9-----9-----------------------------------|

D#|---------------------------------------------------------------------------|
A#|9-------9-------12------12p9---------------9-------------------------------|
F#|9-------9-------9-------9--------9-------9(9)----8-------8h9---------------|
C#|9-------9-------9-------9--------9-------9-------9-------9-----------------|
G#|----------------12----12---------------------------------------------------|
D#|0-----0--------------------------9-----9---------7-----7-------------------|


[Verse]

D#|---------------------------------------------------------------------------|
A#|9-------9-------12------12p9---------------------10------10p9--------------|
F#|9-------9-------9-------9--------9-------9-------9-------9-----------------|
C#|9-------9-------9-------9--------9-------9-------11------11----------------|
G#|----------------12----12-------------------------9-----9-------------------|
D#|0-----0--------------------------9-------9---------------------------------|

D#|---------------------------------------------------------------------------|
A#|9-------9-------12------12p9--------------(9)------------------------------|
F#|9-------9-------9-------9--------9-------9-------8-------8h9---------------|
C#|9-------9-------9-------9--------9-------9-------9-------9-----------------|
G#|----------------12------12-------------------------------------------------|
D#|0-----0--------------------------9-------9-------7-----7-------------------|  x 2


[Chorus]

D#|---------------------------------------------------------------------------|
A#|---------------------------------------------------------------------------|
F#|9-------9-------9-------9--------9-------9-------9-------9-----------------|
C#|9-------9-------9-------9--------9-------9-------9-------9-----------------|
G#|12--------------11---------------10--------------9-------------------------|
D#|---------------------------------------------------------------------------|  x 2

D#|---------------------------------------------------------------------------|
A#|---------------------------------------------------------------------------|
F#|9-------9-------9-------9--------11------11------11------11----------------|
C#|9-------9-------9-------9--------11------11------11------11----------------|
G#|12--------------11---------------14--------------13------------------------|
D#|---------------------------------------------------------------------------| 

D#|---------------------------------------------------------------------------|
A#|---------------------------------------------------------------------------|
F#|11------11------9-------9--------9-------9-------7-------7-----------------|
C#|11------11------9-------9--------9-------9-------7-------7-----------------|
G#|12--------------11---------------10--------------9-------------------------|
D#|---------------------------------------------------------------------------| 

D#|---------------------------------------------------------------------------|
A#|9--------------------------------------------------------------------------|
F#|9--------------------------------------------------------------------------|
C#|9--------------------------------------------------------------------------|
G#|---------------------------------------------------------------------------|
D#|(0)------------------------------------------------------------------------| Only for 1st chorus


[Bridge]

D#|---------------------------------------------------------------------------|
A#|17------16------10--9------------------------------------------------------|
F#|16------16------9---9-------9----------------------------------------------|
C#|18------16------11--9-------9----------------------------------------------|
G#|16------14------9---7-------12---------------------------------------------|
D#|---------------------------------------------------------------------------|

D#|---------------------------------------------------------------------------|
A#|17------16------10--9------------------------------------------------------|
F#|16------16------9---9-------9---------------9h11------9--------------------|
C#|18------16------11--9-------9---------------------9h11---------------------|
G#|16------14------9---7-------12------------12-------------------------------|
D#|---------------------------------------------------------------------------|

D#|---------------------------------------------------------------------------|
A#|---------------------------------------------------------------------------|
F#|9-------9-------9-------9-------9-------9-------14------14-----------------|
C#|9-------9-------9-------9-------9-------9-------12------12-----------------|
G#|11--------------11--------------10--------------12-------------------------|
D#|---------------------------------------------------------------------------|


[Outro]

D#|---------------------------------------------------------------------------|
A#|9-------9-------12------12p9---------------9-------------------------------|
F#|9-------9-------9-------9--------9-------9(9)----8-------8h9---------------|
C#|9-------9-------9-------9--------9-------9-------9-------9-----------------|
G#|----------------12----12---------------------------------------------------|
D#|0-----0--------------------------9-----9---------7-----7-------------------|

D#|---------------------------------------------------------------------------|
A#|9-------9-------12------12p9---------------------10------10p9--------------|
F#|9-------9-------9-------9--------9-------9-------9-------9-----------------|
C#|9-------9-------9-------9--------9-------9-------11------11----------------|
G#|----------------12----12-------------------------9-----9-------------------|
D#|0-----0--------------------------9-------9---------------------------------|

D#|---------------------------------------------------------------------------|
A#|9-------9-------12------12p9--------------(9)------------------------------|
F#|9-------9-------9-------9--------9-------9-------8-------------------------|
C#|9-------9-------9-------9--------9-------9-------9-------------------------|
G#|----------------12------12-------------------------------------------------|
D#|0-----0--------------------------9-------9-------7-------------------------| 

D#|---------------------------------------------------------------------------|
A#|9--------------------------------------------------------------------------|
F#|9--------------------------------------------------------------------------|
C#|9--------------------------------------------------------------------------|
G#|---------------------------------------------------------------------------|
D#|(0)------------------------------------------------------------------------| 


[Intro]


On a sailboat I am 
Slowly floating nowhere 
Lost the memories of where I am and why 

Black ocean churnin'
A million stars are burnin'
Planetariums were right about the sky 


[Chorus]

Oh once upon a pushed out from the journey 
Wishin' on the wind take me far from home 
Now I'm on the waves 
And I'm taking on water, hard to see, I won't always be alone 

There was a time when August sun was high and centered on me 
But it did behind my back and settled down 
Used to square it through the land, used to size it in my hand 
But it fell behind the line that leads to sky 


[Chorus]

Oh, once upon a day I pushed out from the journey 
Wishin' on the wind to take me far from home 
Now I'm on the waves 
And I'm taking on water, hard to see, I won't always be alone 


[Bridge]

Inside this storm whipping in the wind 
My sail is torn
In other words, the hands I mend are not my own


[Chorus]

Ohhhhhhhhhhhhhhh
Not my own
Ohhhhhhhhhhhhhhh
Hard to see, won't always be alone 


[Outro]

On a sailboat I am
Slowly floating nowhere 
Hoping someday I'll wash upon someone else's shore



************************************

| (n)  Ghost note
| h    Hammer-on
| p    Pull-off

************************************

            
            
Suggest correction
Creating personal tab
Creating personal tab
You can edit any tab online and save it as your Personal.

You can edit, replace or remove any tab part or add personal notes – all changes will be seen only by you.

Personal tabs can be accessed anytime from any device, even offline.
Learn more »
Give kudos to tab author, rate the tab!
1 2 3 4 5
comments
print report bad tab
1 comment total.
0 reply
soulpumpkin79 10 Jan 15, 2017 08:18 PM

Aside from tuning down a step it appears to be the same phrasing as version 1

guest
You may want to rate the tab now too:
select rating
Wanna post a correction for this tab? Suggest correction