Oops, an error
Loading. Please wait.
We have Chord Pro version of Your Body Is A Wonderland.
It's the closest thing you can get to the original song and it has interactive parts. Check out the tab »
×
62,336 views 24 this week
2 commentsread comments
1 2 3 4 5
x 12
add to favorites
×
Save as Personal and add changes to this tab that will be seen only by you. Learn more ›
×
You can save this tab as Personal to edit and correct it or add notes. All changes will be seen only by you. Learn more »
launch autoscroll
font size
0
reset
how to read this tab
guitar tuner
backing track
0:00
0:00
edit
Autoscroll
slow
fast
+/-
esc
set tempo
stop
Author
[Intro]
e|------X----------X---------X----------X----|
B|------X----------X---------X----------X----|
G|---10-X-10----10-X-10---10-X-10----10-X-10-|
D|---10-X-10----10-X-10---10-X-10----10-X-10-|
A|-8----X-8--------X---------X----------X----|
E|------X----10----X-10-8----X-8--10----X-10-|

[Verse 1]
e|------X----------X---------X----------X----|
B|------X----------X---------X----------X----|
G|---10-X-10----10-X-10---10-X-10----10-X-10-|
D|---10-X-10----10-X-10---10-X-10----10-X-10-|
A|-8----X-8--------X---------X----------X----|
E|------X----10----X-10-8----X-8--10----X-10-|

[Verse 2]
e|------X----------X---------X----------X----|
B|------X----------X---------X----------X----|
G|---10-X-10----10-X-10---10-X-10----10-X-10-|
D|---10-X-10----10-X-10---10-X-10----10-X-10-|
A|-8----X-8--------X---------X----------X----|
E|------X----10----X-10-8----X-8--10----X-10-|

[Pre-Chorus]
e|------X-------X------X-------X-------X-------X------X-------X-
B|---10-X-8--8--X---10-X-8--8--X----10-X-8--8--X---10-X-8--8--X-
G|---10-X-10-10-X---10-X-10-10-X----10-X-10-10-X---10-X-10-10-X-
D|------X-------X------X-------X-------X-------X------X-------X-
A|------X-------X------X-------X-------X-------X------X-------X-
E|-8----X-8--8--X-10---X-10-10-X--8----X-8--8--X-10---X-10-10-X-

e|------X-------X------X-------X----X-------X-------X--------X----|
B|---10-X-8--8--X---10-X-8-8---X--3-X-3---5-X-5---6-X-6----8-X-8--|
G|---10-X-10-10-X---10-X-10-10-X--3-X-3---5-X-5---6-X-6----8-X-8--|
D|------X-------X------X-------X----X-------X-------X--------X----|
A|------X-------X------X-------X----X-------X-------X--------X----|
E|-8----X-8--8--X-10---X-10-10-X-5--X-5--7--X-7--8--X-8-10---X-10-|

[Chorus]
e|------X----------X---------X----------X----|
B|------X----------X---------X----------X----|
G|---10-X-10----10-X-10---10-X-10----10-X-10-|
D|---10-X-10----10-X-10---10-X-10----10-X-10-|
A|-8----X-8--------X---------X----------X----|
E|------X----10----X-10-8----X-8--10----X-10-|

[Verse 3]
e|------X----------X---------X----------X----|
B|------X----------X---------X----------X----|
G|---10-X-10----10-X-10---10-X-10----10-X-10-|
D|---10-X-10----10-X-10---10-X-10----10-X-10-|
A|-8----X-8--------X---------X----------X----|
E|------X----10----X-10-8----X-8--10----X-10-|

[Pre-Chorus]

[Chorus]

But you look so good it hurts sometimes...

Solo (Courtesy of ThomasOverMany)  
e|-12-8--------------------12-8----10-------|
B|------10-8-6--6/8--10\8-------10----12----|
G|-12-9--------------------12-9----10-------|
D|------10-8-7--7/9--10\8-------10----12----|
A|------------------------------------------|
E|------------------------------------------|

e|-12-8--------------------12-8----15-12----|
B|------10-8-6--6/8--10\8-------10----------|
G|-12-9--------------------12-9----15-12----|
D|------10-8-7--7/9--10\8-------10----------|
A|------------------------------------------|
E|------------------------------------------|



************************************

| /  Slide up
| \  Slide down
| X  Palm Mute/Thumb Slap 

************************************

            
            
Suggest correction
Creating personal tab
Creating personal tab
You can edit any tab online and save it as your Personal.

You can edit, replace or remove any tab part or add personal notes – all changes will be seen only by you.

Personal tabs can be accessed anytime from any device, even offline.
Learn more »
comments
print report bad tab
2 comments total.
0 reply
tmesse02934 50 Jun 25, 2013 08:29 PM

Btw guitar is tuned to drop d.

0 reply
dewis1 280 Jul 28, 2013 07:42 AM

I have this for the end of the Pre-Chorus. Nice Job!

------X-------X------X-------X----X-------X-------X--------X----|
---10-X-8--8--X---10-X-8-8---X--3-X-3---5-X-5---6-X-6----8-X-8--|
---10-X-10-10-X---10-X-10-10-X--3-X-3---5-X-5---7-X-7----9-X-9--|
------X-------X------X-------X----X-------X-------X--------X----|
------X-------X------X-------X----X-------X-------X--------X----|
-8----X-8--8--X-10---X-10-10-X-5--X-5--7--X-7--8--X-8-10---X-10-|

guest
You may want to rate the tab now too:
select rating
Wanna post a correction for this tab? Suggest correction