Oops, an error
Loading. Please wait.
We have Chord Pro version of Your Body Is A Wonderland.
It's the closest thing you can get to the original song and it has interactive parts. Check out the tab »
×
895,756 views 669 this week
33 commentsread comments
1 2 3 4 5
x 93
add to favorites
×
Save as Personal and add changes to this tab that will be seen only by you. Learn more ›
×
You can save this tab as Personal to edit and correct it or add notes. All changes will be seen only by you. Learn more »
launch autoscroll
font size
0
reset
how to read this tab
guitar tuner
backing track
0:00
0:00
edit
Autoscroll
slow
fast
+/-
esc
set tempo
stop
Author
Your body is a wonderland 
transcribed Catherine Gagné (www3.sympatico.ca/g403z)


[Intro]

e|----------------------------------------------|
B|----------------------------------------------|
G|------10-10------10-10-----10-10------10-10---|
D|------10-10------10-10-----10-10------10-10---|
A|---8------------------------------------------|
D|--------------10---------8---------10---------|


[Fill 1]                                   [Fills 2 and 3]

(by Michael Scott)                       (by Joseph Larkin)  

e|--------------------------------|   e|-----------------|-----------------|     e|---------------|
B|--------------------------------|   B|-----------------|-----------------|     B|---1-----------|
G|----0h2(p0)-------10------------|   G|------------10---|-------------10--|     G|---0h2-----10--|
D|--3---------------10------------|   D|--7p5p0-----10---|-----5h7-----10--| or  D|-3---------10--|
A|---------------/8---------------|   A|---------/8------|---8------/8-----|     A|--------/8-----|
D|--------------------------------|   D|-----------------|-----------------|     D|---------------|


[Fill 4]

e|------------------------------|   
B|------------------------------|   
G|-------------------------10---|   
D|-------------------------10---|   
A|----------------------/8------|   
D|---8-7-5-0--8-7-5-0-----------|   


"Area codes" intro (by Alan Myers)

e|-----------------|
B|---(10)--3---5---|
G|----10---3---5---|
D|----10---5---7---|
A|-----------------|
D|-----0---5---7---|


[Part 1]

[Verse]

e|----------------------------------------------| 
B|----------------------------------------------| 
G|------10-10------10-10-----10-10------10-10---| 
D|------10-10------10-10-----10-10------10-10---| 
A|---8------------------------------------------| 
D|--------------10---------8---------10---------| 


[Part 2]

[Pre-chorus]

e|----------------------------------------------| 
B|----10--8-----10--8----------3---5---6----8---| 
G|----10-10-----10-10----------3---5---7----9---| 
D|-----8--8------8--8---(x3)---5---7---8---10---| 
A|-----------------------------x---x---x----x---| 
D|---8--------10---------------5---7---8---10---| 


[Part 3]

[Chorus]

e|----------------------------------------------| 
B|------10-10------10-10-----10-10------10-10---| 
G|------10-10------10-10-----10-10------10-10---| 
D|------10-10------10-10-----10-10------10-10---| 
A|---8------------------------------------------| 
D|--------------10---------8---------10---------| 


[Part 4]

"Damn baby.." 

e|------------0------| 
B|---6--------8------| 
G|---7--------9------| 
D|--10-------12------| x4
A|------(0)--10------| 
D|---0---------------| 

from Michael Scott's tab 

                  x4 
e|-------------------|    e|-----------|
B|---6---8-----------|    B|---6---8---|
G|---7---9-----------|    G|---7---9---|
D|---x---x-----------| or D|---0---7---|
A|---5---0-----------|    A|-------0---|
D|-------------------|    D|---0-------|


[Jam]

Here's a good one suggested by Joseph Larkin:

e|-------------------------------------------------------12---|
B|-----10--x--10-----10--x--10-----10--x--10-----10------10---|
G|-----10--x--10-----10--x--10-----10--x--10-----10------10---|
D|-----10--x--10-----10--x--10-----10--x--10-----10------10---|
A|------------------------------------------------------------|
D|---0-------------0-------------0-------------7------10------|


You could also play this:

e|----------------------7---|---------------------12---|
B|------10----10--------8---|-----10----10--------13---|
G|------10----10--------7---|-----10----10--------12---|
D|------10----10------------|-----10----10-------------|
A|--------------------------|--------------------------|
D|---0------7-----10--------|---0-----7-----10---------|

(Thanks to Jonathan Aceves for the bass line)


(album)

e|---12--8-------------------------------|---12--8------10-------|
B|-----------/10--8--6---6/8---10/8--6---|----------10------12---|
G|---12--9-------------------------------|---12--9------10-------|
D|-----------/10--8--7---7/9---10/8--7---|----------10------12---|
A|---------------------------------------|-----------------------|
D|---------------------------------------|-----------------------|

e|---12--8-------------------------------|---12--8------15--12---|
B|-----------/10--8--6---6/8---10/8--6---|----------10-----------|
G|---12--9-------------------------------|---12--9------16--12---|
D|-----------/10--8--7---7/9---10/8--7---|----------10-----------|
A|---------------------------------------|-----------------------|
D|---------------------------------------|-----------------------|

Instead of (xxx9x8), I'm certain that John plays (xx14x13x).


Intro 

(1) We've got the afternoon 
You've got this room for two 
One thing I've left to do 
Discover me discovering you 

(1) One mile to every inch of 
your skin like porcelain 
One pair of candy lips 
and your bubblegum tongue 

(2) And if you want love 
we'll make it 
Swimming a deep sea 
of blankets 
take all your big plans 
and break 'em 
this is bound to be a while 

(3) Your body is a wonderland 
Your body is a wonder I'll use my hands 
Your body is a wonderland 

(1) Something about the way the hair falls in your face 
I love the shape you take when crawling towards the pillow case 
You tell me where to go though I might leave to find it 
I'll never let your head hit the bed without my hand behind it 

(2) You want love 
we'll make it 
Swimming a deep sea 
of blankets 
Take all your big plans 
and break 'em 
this is bound to be awhile 

(3) Your body is a wonderland 
Your body is a wonder I'll use my hands 

(4) Damn, baby 
You frustrate me 
I know you're mine all mine all mine 
but you look so good it hurts sometimes 

Jam

(3) Your body is a wonderland 
Your body is a wonder I'll use my hands 
Your body is a wonderland 
Your body is a wonderland

            
            
Suggest correction
Creating personal tab
Creating personal tab
You can edit any tab online and save it as your Personal.

You can edit, replace or remove any tab part or add personal notes – all changes will be seen only by you.

Personal tabs can be accessed anytime from any device, even offline.
Learn more »
comments
print report bad tab
33 comments total. Showing first comments.
0 reply
thg1987 10 Apr 11, 2009 05:21 PM

excellent tab man.

+2 reply
pyroscash 10 Apr 13, 2009 03:22 PM

on the intro and versehe does it just a little diffrent than what you got.
where the *'s are let your thumb land back on the string and mute it.

e----------------------------------------------
b----------------------------------------------
g------10-10------10-10-----10-10------10-10---
d------10-10------10-10-----10-10------10-10---
a---8---*--8-----------------------------------
d--------------10--*-10---8--*--8---10--*-10---

+2 reply
pyroscash 10 Apr 13, 2009 03:22 PM

e----------------------------------------------
b----------------------------------------------
g------10-10------10-10-----10-10------10-10---
d------10-10------10-10-----10-10------10-10---
a---8---*--8-----------------------------------
d--------------10--*-10---8--*--8---10--*-10---
e----------------------------------------------
b----------------------------------------------
g------10-10------10-10-----10-10------10-10---
d------10-10------10-10-----10-10------10-10---
a---8---*--8-----------------------------------
d----------------10--*-10---8--*--8---10--*-10---

guest
You may want to rate the tab now too:
select rating
Wanna post a correction for this tab? Suggest correction