Oops, an error
Loading. Please wait.
We have Chord Pro version of Your Body Is A Wonderland.
It's the closest thing you can get to the original song and it has interactive parts. Check out the tab »
×
51,474 views 21 this week
4 commentsread comments
1 2 3 4 5
x 16
add to favorites
×
Save as Personal and add changes to this tab that will be seen only by you. Learn more ›
×
You can save this tab as Personal to edit and correct it or add notes. All changes will be seen only by you. Learn more »
launch autoscroll
font size
0
reset
how to read this tab
guitar tuner
backing track
0:00
0:00
edit
Autoscroll
slow
fast
+/-
esc
set tempo
stop
Intro/verse/chorus
e --------------------------------------------------------------------------|
B --------------------------------------------------------------------------|
G -------10--x--10------10--x--10-----10--x--10-------10--x--10-------------|
D -------10--x--10------10--x--10-----10--x--10-------10--x--10-------------|
A ---8-------x--8-----------x-------------x---------------x-----------------|
D -----------x------10------x--10--8------x--8----10------x--10-------------|

fill
e--------------------------------------------------------------------------|
B-------10--8--8---10-10-8----------3x3--5x5--6x6--7x7---------------------|
G-------10-10-10---10-10-10---------3x3--5x5--6x6--7x7---------------------|
D---------------------------X3------3x3--5x5--6x6--7x7---------------------|
A--------------------------------------------------------------------------|
D----8-----------10--------------------------------------------------------|

solo kinda thing
e-----12--8-------------------------12-8 -----10------------------------|
B-------------10-8-6-6-8-10-6-8---------10-----12-----------------------|
G-----------------------------------------------------------------------|
D-----------------------------------------------------------------------|
A-----------------------------------------------------------------------|
D-----------------------------------------------------------------------|

e-----12--8-------------------------12-8 -----15------------------------|
B-------------10-8-6-6-8-10-6-8---------10-----17-----------------------|
G-----------------------------------------------------------------------|
D-----------------------------------------------------------------------|
A-----------------------------------------------------------------------|
D-----------------------------------------------------------------------|

jam thing
e-------------12----------------------------------------------------|
B-----10------10----------------------------------------------------|
G-----10--x7--10---REPEAT-------------------------------------------|
D-----10------10----------------------------------------------------|
A-------------------------------------------------------------------|
D-------------------------------------------------------------------|

please rate it

any corrections Littleschmidt9@hotmail.com

            
            
Suggest correction
Creating personal tab
Creating personal tab
You can edit any tab online and save it as your Personal.

You can edit, replace or remove any tab part or add personal notes – all changes will be seen only by you.

Personal tabs can be accessed anytime from any device, even offline.
Learn more »
comments
print report bad tab
4 comments total. Showing first comments.
+1 reply
empathetik28 10 Apr 17, 2009 02:11 PM

I believe the last part of the fill is

------------------------------------
--3x3----5x5----6x6----8x8----------
--3x3----5x5----7x7----9x9----------
------------------------------------
------------------------------------
3--x3--5--x5--6--x6--8--x8--------

0 reply
slug 92 Jun 26, 2009 07:52 PM

This one i close to accurate compared to the other shit tabs, honestly.

0 reply
vilhelm_nielsen 10 Aug 01, 2009 07:25 AM

This is correct, I'm sure.

guest
Wanna post a correction for this tab? Suggest correction