Oops, an error
Loading. Please wait.

Curve tab

version 1
version 1

Whole song

Interactive

8,038 views 9 this week
no commentswrite comment
1 2 3 4 5
2 more votes to show rating
add to favorites
×
Save as Personal and add changes to this tab that will be seen only by you. Learn more ›
×
You can save this tab as Personal to edit and correct it or add notes. All changes will be seen only by you. Learn more »
launch autoscroll
font size
0
reset
how to read this tab
guitar tuner
edit
Autoscroll
slow
fast
+/-
esc
set tempo
stop
Author
Difficulty
Gtr I (E A D G B E) - 'JP Dist L'
Gtr II (E A D G B E) - 'JP Dist R'
Gtr III (E A D G B E) - 'JP Lead M'


 Intro
  Q=146
                 E5    N.C.    E5    N.(E)
 2/4        4/4
  Gtrs I, II
             PM|         PM|           PM|
  E E Q      E E E E E E E E   E E E E E E S S  E
|--------||------------------|---------------------|
|--------||o-----------------|---------------------|
|--------||------9-9-9-9-----|-9-9-9-9---------[1]-|
|--------||------9-9-9-8-----|-9-9-9-8-------2-----|
|--------||o-----7-7-7-7-----|-7-7-7-7-----2-------|
|--------||--0-0---------0-0-|---------0-0---------|


      E5    N.C.E5      (E)
    PM        PM        PM----|
  E E E E E E E E   +E  S S E E E E E E
|-----------------|----------------------||
|-----------------|---------------------o||
|-----9-9-9-9---9-|-(9)------------------||
|-2---9-9-9-8---9-|-(9)------------------||
|-----7-7-7-7---7-|-(7)---------7-------o||
|---0---------0---|-----0-0-6-7---7-6-4--||


   Theme
    E5         N.C.    E5     N.C.    E5
    Gtr III
                                    ~~~~~
    Q   Q.     q   E   Q.     Q   E Q
||-------------------|------------------|
||o------------------|------------------|
||-------------------|------------------|
||------6------8-----|-9------8---6-6---|
||o------------------|------------------|
||-------------------|------------------|
|
|   Gtrs I, II
|   PM|          PM|            PM--|
|   E E E  E E E E E   E  E E E E E E E
||-------------------|------------------|
||o------------------|------------------|
||------9--9-9-9-----|-9--9-9-9-------9-|
||------9--9-9-8-----|-9--9-9-8-------9-|
||o-----7--7-7-7-----|-7--7-7-7-------7-|
||--0-0----------0-0-|----------0-0-0---|


               N.C.    E6         E5
 ~~~~~                                  ~
  +Q    Q.     q   E     Q.       E E E Q
|--------------------|-----------------------|
|--------------------|-----------------------|
|--------------------|-----------------------|
|-(6)---6------8-----|-/11--------9-9s8-8----|
|--------------------|-----------------------|
|--------------------|-----------------------|
|
|  PM-|          PM|                PM--|
|  E  E E  E E E E E     E   E  E E E E E E
|--------------------|-----------------------|
|--------------------|-----------------------|
|-------9--9-9-9-----|------------9-------9--|
|-------9--9-9-8-----|--11--11-11-9-------9--|
|-------7--7-7-7-----|---7---7--7-7-------7--|
|--0--0----------0-0-|--------------0-0-0----|


               N.C.    E5      N.C.        E5
   ~~~                                   ~~~~~
  +Q    Q.     q   E    Q.     Q    a  E Q
|--------------------|-----------------------|
|--------------------|-----------------------|
|--------------------|-----------------------|
|-(8)---6------8-----|-/9------8---(8)s6-6---|
|--------------------|-----------------------|
|--------------------|-----------------------|
|
|  PM-|          PM|             PM------|
|  E  E E  E E E E E    E  E E E E     E E E
|--------------------|-----------------------|
|--------------------|-----------------------|
|-------9--9-9-9-----|--9--9-9-9-----------9-|
|-------9--9-9-8-----|--9--9-9-8-----------9-|
|-------7--7-7-7-----|--7--7-7-7-----------7-|
|--0--0----------0-0-|-----------0-----0-0---|


              N.C.E5      (E)
 ~~~~~~~~~~~~~~~~~~~~~~~~~~~~~~~~~~~~~~~~~
  +W                  +H.             +E  +E
|-------------------|---------------------------||
|-------------------|--------------------------o||
|-------------------|---------------------------||
|-(6)---------------|-(6)-------------(6)-(6)\--||
|-------------------|--------------------------o||
|-------------------|---------------------------||
|
|  PM-|         PM        PM----|
|  E  E E E E E E E   +E  S S E E E E  E   E
|-------------------|---------------------------||
|-------------------|--------------------------o||
|-------9-9-9-9---9-|-(9)-----------------------||
|-------9-9-9-8---9-|-(9)-----------------------||
|-------7-7-7-7---7-|-(7)---------7------------o||
|--0--0---------0---|-----0-0-6-7---7--6---4----||


  F#         F#sus4  F#      F#sus4  F#5
                                   ~~~~~
  Q   Q.     q   E    Q.     Q   E Q
|------------------|-------------------|
|------------------|-------------------|
|------------------|-------------------|
|-----8------9-----|-11------9---8-8---|
|------------------|-------------------|
|------------------|-------------------|
|
| PM|          PM|             PM--|
| E E E  E E E E E    E  E E E E E E E
|------------------|-------------------|
|------------------|-------------------|
|-----3--3-3-4-----|--3--3-3-4---------|
|-----4--4-4-4-----|--4--4-4-4-------4-|
|------------------|-----------------4-|
|-2-2----------2-2-|-----------2-2-2-2-|


        F#     F#sus4                    F#
 ~~~~~
  +Q    E Q.     q       E  +S       +S   +E   Q.     Q
|--------------------|-------------------------------------|
|--------------------|-------------------------------------|
|--------------------|-------------------------------------|
|-(8)-----8------9---|-/13-(13)b14==(13)r(13)-11------8----|
|--------------------|-------------------------------------|
|--------------------|-------------------------------------|
|
|                PM|                              PM--|
|  E  E E E  E E E E     E   E             E   E  E E E E
|--------------------|-------------------------------------|
|--------------------|-------------------------2-----------|
|-------3-3--3-4-----|---4---4-------------3---3-----------|
|-------4-4--4-4-----|---4---4-------------4---4--------4--|
|--------------------|----------------------------------4--|
|--2--2----------2-2-|----------------------------2-2-2-2--|


  E5                    E5
  +Q     Q.     q   E    E  +S       +S   +E  Q.     Q
|---------------------|--------------------------------------|
|---------------------|--------------------------------------|
|---------------------|-11-(11)b13==(11)r(11)----------------|
|-(8)/---6------8-----|-----------------------9------8-------|
|---------------------|--------------------------------------|
|---------------------|--------------------------------------|
|
|      PM         PM|                            PM|
|  E   E E  E E E E E    E   E             E  E  E E S S  E
|---------------------|--------------------------------------|
|---------------------|--------------------------------------|
|--------9--9-9-9-----|--9---9-------------9--9----------[1]-|
|--2-----9--9-9-8-----|--9---9-------------9--8--------2-----|
|--2-----7--7-7-7-----|--7---7-------------7--7------2-------|
|--0---0----------0-0-|--------------------------0-0---------|


           E5            E5            (E)
                     \1/   \1/     \1/   \1/     \1/   \1/   \1/   \1/   \1/   \1/
   H.               +E    +E      +E    +E      +E    +E    +E    +E    +E    +E
|------------------------------|-----------------------------------------------------|
|------------------------------|-----------------------------------------------------|
|-11b13============(11)--(11)--|-(11)--(11)----(11)--(11)--(11)--(11)--(11)--(11)r---|
|------------------------------|-----------------------------------------------------|
|------------------------------|-----------------------------------------------------|
|------------------------------|-----------------------------------------------------|
|
|        PM          PM                  PM----------|
|  E     E E E E E   E     E      +E     S   S   E     E     E     E     E     E
|------------------------------|-----------------------------------------------------|
|------------------------------|-----------------------------------------------------|
|----------9-9-9-9---------9---|--(9)------------------------------------------------|
|--2-------9-9-9-8---------9---|--(9)------------------------------------------------|
|----------7-7-7-7---------7---|--(7)------------------------7-----------------------|
|--------0-----------0---------|---------0---0---6-----7-----------7-----6-----4-----|


        E5     N.C.     E5      N.C.     E5
                                       ~~~~~
    Q   Q.      q   E    Q.      Q   E Q
||--------------------|--------------------|
||o-----9------11-----|-12------11---9-9---|
||--------------------|--------------------|
||--------------------|--------------------|
||o-------------------|--------------------|
||--------------------|--------------------|
|
|   PM|           PM|              PM--|
|   E E E  E E  E E E    E  E E  E E E E E
||--------------------|--------------------|
||o-------------------|--------------------|
||------9--9-9--9-----|--9--9-9--9-------9-|
||------9--9-9--8-----|--9--9-9--8-------9-|
||o-----7--7-7--7-----|--7--7-7--7-------7-|
||--0-0-----------0-0-|------------0-0-0---|


                N.C.     E6         E5
 ~~~~~~                                       ~~
  +Q     Q.      q   E     Q.        E  E  E  Q
|----------------------|---------------------------|
|-(9)\---9------11-----|-/14--------12-12p11-11----|
|----------------------|---------------------------|
|----------------------|---------------------------|
|----------------------|---------------------------|
|----------------------|---------------------------|
|
|  PM--|           PM|                  PM---|
|  E   E E  E E  E E E     E   E  E  E  E  E  E E
|----------------------|---------------------------|
|----------------------|---------------------------|
|--------9--9-9--9-----|-------------9----------9--|
|--------9--9-9--8-----|--11--11-11--9----------9--|
|--------7--7-7--7-----|---7---7--7--7----------7--|
|--0---0-----------0-0-|----------------0--0--0----|


                N.C.     E5       N.C.          E5
    ~~~~                                      ~~~~~
   +Q    Q.      q   E     Q.      Q     a  E Q
|----------------------|--------------------------|
|-(11)---9------11-----|-/12------11---(11)s9-9---|
|----------------------|--------------------------|
|----------------------|--------------------------|
|----------------------|--------------------------|
|----------------------|--------------------------|
|
|   PM-|           PM|               PM-------|
|   E  E E  E E  E E E     E  E E  E E      E E E
|----------------------|--------------------------|
|----------------------|--------------------------|
|--------9--9-9--9-----|---9--9-9--9------------9-|
|--------9--9-9--8-----|---9--9-9--8------------9-|
|--------7--7-7--7-----|---7--7-7--7------------7-|
|---0--0-----------0-0-|-------------0------0-0---|


              N.C.E5      (E)
 ~~~~~~~~~~~~~~~~~~~~~~~~~~~~~~~~~~~~~~~~~
  +W                  +H.             +E  +E
|-------------------|---------------------------||
|-(9)---------------|-(9)-------------(9)-(9)\-o||
|-------------------|---------------------------||
|-------------------|---------------------------||
|-------------------|--------------------------o||
|-------------------|---------------------------||
|
|  PM-|         PM        PM----|
|  E  E E E E E E E   +E  S S E E E E  E   E
|-------------------|---------------------------||
|-------------------|--------------------------o||
|-------9-9-9-9---9-|-(9)-----------------------||
|-------9-9-9-8---9-|-(9)-----------------------||
|-------7-7-7-7---7-|-(7)---------7------------o||
|--0--0---------0---|-----0-0-6-7---7--6---4----||


  F#          F#sus4   F#      F#sus4     F#5
                                        ~~~~~
  Q    Q.      q   E    Q.      Q.      Q
|--------------------|----------------------|
|-----11------12-----|-14------12------11---|
|--------------------|----------------------|
|--------------------|----------------------|
|--------------------|----------------------|
|--------------------|----------------------|
|
| PM|            PM|               PM--|
| E E  E  E E  E E E    E  E E  E  E E  E E
|--------------------|----------------------|
|--------------------|----------------------|
|------3--3-3--4-----|--3--3-3--4-----------|
|------4--4-4--4-----|--4--4-4--4---------4-|
|--------------------|--------------------4-|
|-2-2------------2-2-|-------------2-2--2-2-|


          F#      F#sus4          F#
 ~~~~~~~
   +Q     E  Q.      q       Q.      Q.      Q
|------------------------|-----------------------|
|-(11)/-----11------12---|-/16------14------11---|
|------------------------|-----------------------|
|------------------------|-----------------------|
|------------------------|-----------------------|
|------------------------|-----------------------|
|
|                    PM|                PM--|
|   E   E E  E  E E  E E     E  E E  E  E E  E E
|------------------------|-----------------------|
|------------------------|-----------2-----------|
|---------3--3--3-4------|---4--4-3--3-----------|
|---------4--4--4-4------|---4--4-4--4---------4-|
|------------------------|---------------------4-|
|---2---2------------2-2-|--------------2-2--2-2-|


  E5            N.C.     E5      N.C.(E)                     E5    N.C.    E5
                                                                       \1/   \1/
   +Q    Q.      q   E    Q.      Q.      Q          H.               +E    +E
|----------------------|--------------------------|------------------------------|
|-(11)---9------11-----|-19-----------------------|-19b21============(19)--(19)--|
|----------------------|---------16------15-------|------------------------------|
|----------------------|--------------------------|------------------------------|
|----------------------|--------------------------|------------------------------|
|----------------------|--------------------------|------------------------------|
|
|   PM-|           PM|               PM|                   PM          PM
|   E  E E  E E  E E E    E  E E  E  E E  S S  E     E     E E E E E   E     E
|----------------------|--------------------------|------------------------------|
|----------------------|--------------------------|------------------------------|
|--------9--9-9--9-----|--9--9-9--9---------------|----------9-9-9-9---------9---|
|--------9--9-9--8-----|--9--9-9--8-----------[6]-|----------9-9-9-8---------9---|
|--------7--7-7--7-----|--7--7-7--7---------7-----|--7-------7-7-7-7---------7---|
|---0--0-----------0-0-|-------------0-0--7-------|--------0-----------0---------|


        (E)
    \1/   \1/     \1/   \1/   \1/   \1/   \1/   \1/
   +E    +E      +E    +E    +E    +E    +E    +E
|---------------------------------------------------|
|-(19)--(19)----(19)--(19)--(19)--(19)--(19)--(19)r-|
|---------------------------------------------------|
|---------------------------------------------------|
|---------------------------------------------------|
|---------------------------------------------------|
|
|         PM----------|
|  +E     S   S   E     E     E     E     E     E
|---------------------------------------------------|
|---------------------------------------------------|
|--(9)----------------------------------------------|
|--(9)----------------------------------------------|
|--(7)------------------------7---------------------|
|---------0---0---6-----7-----------7-----6-----4---|


 Guitar Solo
  E5                      N.C.           E5            N.C.                E5
   S S S  S S S  S S S  S S S  S S S S    S S S  S S S  S S S  S S S  S  S S S
|-19-0-0-18-0-0-19-0-0-18-0-0-16-0-0-0-|-19-0-0-18-0-0-21-0-0-19-0-0-18-19-0-0-|
|--------------------------------------|---------------------------------------|
|--------------------------------------|---------------------------------------|
|--------------------------------------|---------------------------------------|
|--------------------------------------|---------------------------------------|
|--------------------------------------|---------------------------------------|
|
|  PM--|                       PM--|                        PM-------|
|  E   E    E    E   E    E    E   E      E   E    E    E   E    E    E    E
|--------------------------------------|---------------------------------------|
|--------------------------------------|---------------------------------------|
|-----------9----9---9----9------------|--9---9----9----9------------------9---|
|-----------9----9---9----8------------|--9---9----9----8------------------9---|
|-----------7----7---7----7------------|--7---7----7----7------------------7---|
|--0---0-----------------------0---0---|--------------------0----0----0--------|


                          N.C.
   S S S  S S S  S S S  S S S  S S S  S
|-19-0-0-18-0-0-16-0-0-14-0-0-12-0-0-11---|
|-----------------------------------------|
|-----------------------------------------|
|-----------------------------------------|
|-----------------------------------------|
|-----------------------------------------|
|
|  PM--|                       PM--|
|  E   E    E    E   E    E    E   E
|-----------------------------------------|
|-----------------------------------------|
|-----------9----9---9----9---------------|
|-----------9----9---9----8---------------|
|-----------7----7---7----7---------------|
|--0---0-----------------------0---0------|


  E5          N.C.                    E5
  S S S S S S S S T S T T T S T T T T T T T T
|-0-0-9-0-0-7-0-0-6h7h9p7p6h7h9p7p6h7h9p7p6h7h|
|---------------------------------------------|
|---------------------------------------------|
|---------------------------------------------|
|---------------------------------------------|
|---------------------------------------------|
|
|                 PM----------|
| E   E   E   E   E     E     E       E
|---------------------------------------------|
|---------------------------------------------|
|-9---9---9---9-----------------------9-------|
|-9---9---9---8-----------------------9-------|
|-7---7---7---7-----------------------7-------|
|-----------------0-----0-----0---------------|


                                               N.C.
  S S X X S  T X X X X +S  T T X X T T  T T  T  +T   T  T T T S  T T T T T
|-9p7p6h7h9h11-9p7p6h7-(7)h9p7p6h7h9-9h11p9h11-(11)h12p11p9p8h9h11p9p7p6h7h====|
|------------------------------------------------------------------------------|
|------------------------------------------------------------------------------|
|------------------------------------------------------------------------------|
|------------------------------------------------------------------------------|
|------------------------------------------------------------------------------|
|
| PM--|                                                     PM-----|
| E   E        E           E         E           E          E      E
|------------------------------------------------------------------------------|
|------------------------------------------------------------------------------|
|--------------9-----------9---------9-----------9-----------------------------|
|--------------9-----------9---------9-----------8-----------------------------|
|--------------7-----------7---------7-----------7-----------------------------|
|-0---0-----------------------------------------------------0------0-----------|


  E5                N.C.                      E5
                                    |---5---|
  S.T T S T T T T T T T T T S S S S T T T T T S S
|-9s4h6h7p6p4-------------------------------------|
|-------------7p5p4h5h7p5p4-----------------------|
|---------------------------6p4p3h4h6p4p3---------|
|-----------------------------------------6p4p2h4h|
|-------------------------------------------------|
|-------------------------------------------------|
|
|                           PM------|
| E   E     E       E       E   E   E         E
|-------------------------------------------------|
|-------------------------------------------------|
|-9---9-----9-------9-------------------------9---|
|-9---9-----9-------8-------------------------9---|
|-7---7-----7-------7-------------------------7---|
|---------------------------0---0---0-------------|


                                          N.C.
  T T T T T T T T T T T T T T T T T T T T T T T T T T T T S S
|----------------------------------------------------------------|
|----------------------------------------------------------------|
|----------------------------------------------------------------|
|-6p4p2h4h6p4p2h4h6p4p2h4h6p4p2h4p2h4h6p4p2h4h6p4p2h4h6p4h6s8s===|
|----------------------------------------------------------------|
|----------------------------------------------------------------|
|
| PM------|                                       PM------|
| E       E       E       E       E       E       E       E
|----------------------------------------------------------------|
|----------------------------------------------------------------|
|-----------------9-------9-------9-------9----------------------|
|-----------------9-------9-------9-------8----------------------|
|-----------------7-------7-------7-------7----------------------|
|-0-------0---------------------------------------0-------0------|


  E5                      N.C.                E5    F#5
                                  |-3-|       |----5----|
  T T T T T T T T T T T T T T T T S S S S S a S S S   S S
|---------------------------------------------------------||
|---------------------------------------------------------||
|---------------------------------------------------------||
|-6p3p2h4h6p4p2h4h6h8p6p4h6p4-----------------------------||
|-----------------------------7p6-6p4---4h6-6s1---------1-||
|-------------------------------------7---------4p2h==4---||
|
|                                 PM----------|
| E       E       E       E       E     E     E     E
|---------------------------------------------------------||
|---------------------------------------------------------||
|-9-------9-------9-------9-------------------------------||
|-9-------9-------9-------8-------------------2-----4-----||
|-7-------7-------7-------7-------------------2-----4-----||
|---------------------------------0-----0-----0-----2-----||


  F#5                             G5         E5        F#5
  Q   S S E +Q.     T T S   E E E  E   +E    +E    +E  E
|-------------------------|--------------------------------|
|-------------------------|----------------------------7b8r|
|-------------------------|---3-4-/6b7r(6)b7r(6)b7r(6)-----|
|---------4-(4)-----5p4p3-|-4------------------------------|
|-------------------------|--------------------------------|
|-2---2s3-----------------|--------------------------------|
|
| PM|     PM|     PM|
| E E E   E  E  E E E       E E E  E    E     E     E  E
|-------------------------|--------------------------------|
|-------------------------|--------------------------------|
|-------------------------|--------------------------------|
|-----4---------4---------|-4-4-4--5----5-----2-----2--4---|
|-----4---------4---------|-4-4-4--5----5-----2-----2--4---|
|-2-2-2---2--2--2-2-0-----|-2-2-2--3----3-----0-----0--2---|


                                                    A5    G5        E5
                |-3-|
  +E    +E  +E  S S S E.   E.  E   S E   S      +E  E E   +E    +E  S   S
|--------------------------------|-------------------------------------------|
|-(7)b8r(7)-(7)-5h7p5s2----3s==5s|=8-3---2pb3.5r(2)--------------------14s===|
|--------------------------------|------------------4-3b4r(3)b4r(3)-3/-------|
|--------------------------------|-------------------------------------------|
|--------------------------------|-------------------------------------------|
|--------------------------------|-------------------------------------------|
|
|  PM---|       PM----|      PM|
|  E     E   E  E     E  E   E E   E   E         E  E E    E     E  E
|--------------------------------|-------------------------------------------|
|--------------------------------|-------------------------------------------|
|--------------------------------|-------------------------------------------|
|------------4-----------4-------|-4---4---------4--7-7----5-----5--2--------|
|------------4-----------4-------|-4---4---------4--7-7----5-----5--2--------|
|--2-----2---2--2-----2--2---2-0-|-2---2---------2--5-5----3-----3--0--------|


  F#5
                                    |--3--|
  T T T T S  T T T  S  S    S T  S  T  T  T  T T  T  T  T T  S  S  T T
|----------------------------------------------------------------------|
|-7h8p7p0h8h11p8p0h11h12p==11p0h12h14h15p14p12p0h11h12p11p0h12h14p12p0-|
|----------------------------------------------------------------------|
|----------------------------------------------------------------------|
|----------------------------------------------------------------------|
|----------------------------------------------------------------------|
|
| PM------|              PM-----|                       PM-----|
| E       E      E       E       E           E          E       E
|----------------------------------------------------------------------|
|----------------------------------------------------------------------|
|----------------------------------------------------------------------|
|----------------4---------------------------4-------------------------|
|----------------4---------------------------4-------------------------|
|-2-------2------2-------2-------2-----------2----------2-------0------|


                              G5                 E5        F#5
   T  T  T T  S  S  T T  T  S    T T  T    E      +E   +E   +E
|---------------------------------------------------------------||
|-14h15p14p0h12h14p12p0h11h12p==11p0h11/-/19b21==(19)r(19)-(19)-||
|---------------------------------------------------------------||
|---------------------------------------------------------------||
|---------------------------------------------------------------||
|---------------------------------------------------------------||
|
|  E          E     E         E            E       E    E    E
|---------------------------------------------------------------||
|---------------------------------------------------------------||
|---------------------------------------------------------------||
|--4----------4-----4---------5------------5-------2----2----4--||
|--4----------4-----4---------5------------5-------2----2----4--||
|--2----------2-----2---------3------------3-------0----0----2--||


    E        +E        +E   +E  E   S  S  S  S  S  S
|----------------------------------14-14-15-14-12-14-|
|-[19]b20.5r(19)b20.5r(19)-(19)s7/-------------------|
|----------------------------------------------------|
|----------------------------------------------------|
|----------------------------------------------------|
|----------------------------------------------------|
|
|   PM------|                PM-|         PM---|
|   E         E         E    E  E   E     E     E
|----------------------------------------------------|
|----------------------------------------------------|
|----------------------------------------------------|
|-----------------------4-----------4----------------|
|-----------------------4-----------4----------------|
|---2---------2---------2----2--2---2-----2-----0----|


                    A5          G5          E5
   S  S  S  S  S  S  S  S  S  S  S  S  S  S  S  S
|----12-------------------------------------------|
|-15----14-15----14-------------------------------|
|-------------16----16-15-------------------------|
|-------------------------17-16-14----------------|
|----------------------------------17-16-14-------|
|-------------------------------------------15-14-|
|
|  E     E     E     E     E     E     E     E
|-------------------------------------------------|
|-------------------------------------------------|
|-------------------------------------------------|
|--4-----4-----4-----7-----7-----5-----5-----2----|
|--4-----4-----4-----7-----7-----5-----5-----2----|
|--2-----2-----2-----5-----5-----3-----3-----0----|


  Db5                                   N.C.
                                  |-3-|         |----5----|
   S     +S      +S      +S   Q   S S S T T T T S S S   S S
|-----------------------------------------------------------|
|-----------------------------------------------------------|
|---------------------------------------------4h6h8p6p==4---|
|---------------------------------------5h6h8-------------8p|
|-16b18r(16)b18r(16)b18r(16)-18s==4h6h8---------------------|
|-----------------------------------------------------------|
|
|  PM-----------|                               PM----|
|  E              E           E E E     E       E     E
|-----------------------------------------------------------|
|-----------------------------------------------------------|
|-----------------------------6-6-6-----6-------------------|
|-----------------------------6-6-6-----5-------------------|
|--4--------------4-----------4-4-4-----4-------4-----4-----|
|-----------------------------------------------------------|


  Db5                 N.C.                  Db5
                          |-3-| |-3-|
  T T +S  +E    +E    +E  S S S S S S T S T S S
|-------------------------------------------------|
|-----------------------------------6h8h9p8p6-----|
|-----------------------------4h6h8-----------8p==|
|-6p5-(5)-(5)b6r(5)b6r(5)-6h8---------------------|
|-------------------------------------------------|
|-------------------------------------------------|
|
|                         PM----------|
| E        E     E     E  E     E     E     E
|-------------------------------------------------|
|-------------------------------------------------|
|-6--------6-----6-----6--------------------6-----|
|-6--------6-----6-----5--------------------6-----|
|-4--------4-----4-----4--4-----4-----4-----4-----|
|-------------------------------------------------|


                    N.C.
  ~~
            |------6-------|  |--3--|
  Q    Q    S  S  S  S  S  S  S  S  S  E
|----------------------------------------|
|----------12h14h16p14p12----------------|
|-6/----------------------15p13p12-------|
|----------------------------------15p13-|
|----------------------------------------|
|----------------------------------------|
|
| PM-|                        PM------|
| E  E E E  E        E        E        E
|----------------------------------------|
|----------------------------------------|
|------6-6--6--------6-------------------|
|------6-6--6--------5-------------------|
|-4--4-4-4--4--------4--------4--------4-|
|----------------------------------------|


  Db5                 N.C.                  Db5
     |--3--|  |------6-------|               |--3--|
  E  S  S  S  S  S  S  S  S  S  +E   +E   E  S  S  S
|-----------------------------------------------------|
|---14h16h18p16p14--------------------------21p20p18--|
|------------------16p15p13p12-(12)-(12)/-------------|
|-----------------------------------------------------|
|-----------------------------------------------------|
|-----------------------------------------------------|
|
|                                PM-------|
| E  E        E        E         E    E   E  E
|-----------------------------------------------------|
|-----------------------------------------------------|
|-6--6--------6--------6---------------------6--------|
|-6--6--------6--------5---------------------6--------|
|-4--4--------4--------4---------4----4---4--4--------|
|-----------------------------------------------------|


                      N.C.               Db5       N.C.           Db5
                                          ~~~~~
   E      +Q     E  E  +E   E      +E     H          E  E     +E   E
|-18b19==(18)---18-18r(18)-18pb19r(18)-|-18b19---------19b21r(19)-18-|
|--------------------------------------|-----------------------------|
|--------------------------------------|-----------------------------|
|--------------------------------------|-----------------------------|
|--------------------------------------|-----------------------------|
|--------------------------------------|-----------------------------|
|
|  PM----|                  PM----|                  PM------|
|  E       E  E  E  E   E   E       E     E    E E E E  E      E   E
|--------------------------------------|-----------------------------|
|--------------------------------------|-----------------------------|
|-------------6--6--6---6--------------|--6----6-6-6---------------6-|
|-------------6--6--6---5--------------|--6----6-6-5---------------6-|
|--4-------4--4--4--4---4---4-------4--|--4----4-4-4-4--4------4---4-|
|--------------------------------------|-----------------------------|


                         N.C.         Db5      N.C.        Db5
   E  E     +E   E  E     +E   E  E    E  E  E  E  E  E  E  E
|-16--------------------------------|----------------16-15-14--||
|----18b20r(18)-16------------------|----------16p14-----------||
|------------------16b18r(16)-15-13-|-12-----------------------||
|-----------------------------------|----15-13-----------------||
|-----------------------------------|--------------------------||
|-----------------------------------|--------------------------||
|
|  PM|                         PM|                 PM---|
|  E  E      E   E  E      E   E  E    E  E  E  E  E  E  E  E
|-----------------------------------|--------------------------||
|-----------------------------------|--------------------------||
|------------6---6--6------6--------|--6--6--6--6-----------6--||
|------------6---6--6------5--------|--6--6--6--5-----------6--||
|--4--4------4---4--4------4---4--4-|--4--4--4--4--4--4--4--4--||
|-----------------------------------|--------------------------||


  B5                            B5                          C5       A5      B5
                                                                   ~~   PM----------
                                  |--3--|  |--3--|  |--3--|
   +H             H               S  S  S  S  S  S  S  S  S  S  S  Q    S  S  S  S
|-(14tr15)--------------------|----------------------------------------------------|
|----------------16tr17-------|-\12h13p12------------------------------------------|
|-----------------------------|-----------14p12p11h12p11h12p11---------------------|
|-----------------------------|--------------------------------14-13---------------|
|-----------------------------|----------------------------------------15-14-12----|
|-----------------------------|-------------------------------------------------15-|
|
|          PM  PM|        PM|
|   E      E E E  E     E E E     E        E        E        E     E E  E     E
|-----------------------------|----------------------------------------------------|
|-----------------------------|----------------------------------------------------|
|-----------------------------|------------4---------------------------------------|
|---4--------4----------4-----|---4--------4--------4--------5-----5-2--2-----4----|
|---2------2-2-2--2-----2-2-0-|---2--------2--------2--------3-----3-0--0-----2----|
|-----------------------------|----------------------------------------------------|


                                       B5          D5          C5               B5
 ----|    ~~~~~~~~~~~~~~~PM-----------------------------------------|
                                                        |-3--| |--3--| |-----6------|
   S  S   E   +Q     +E  S S S S S S   S S S S S S S  S S S  S S  S  S T T  S S S S S
|------------------------------------|---------------------------------8p7---------------|
|------------------------------------|-------------------------8-10-11-----10-8-8-7------|
|------------------------------------|------------------8-9-11----------------------9----|
|------------------------------------|-----7-9-6-7-9-10----------------------------------|
|----------------------------6-7-6-6-|-7-9-----------------------------------------------|
|-14-12-[11]-(11)---(11)-7-8---------|---------------------------------------------------|
|
|  PM---|         PM|        PM--|
|  E      E    E  E   E  E   E   E     E   E   E   E    E      E       E        E
|------------------------------------|---------------------------------------------------|
|------------------------------------|---------------------------------------------------|
|------------------------------------|---------------------------------------------------|
|--------------4---------4-----------|-4---4---4---7----7------5-------5--------4--------|
|--2------2----2--2---2--2---2---0---|-2---2---2---5----5------3-------3--------2--------|
|------------------------------------|---------------------------------------------------|


  ~~
                    |----------------11:8------------------|
  Q.     +S   T  T  S  S  S    S  S  T    T  S  S  S    S  S
|-7------(7)\-------------------------------11-14------------|
|---------------------13-16--------------13-------13---------|
|------------------14---------14----14-----------------14-14-|
|---------------16---------------14--------------------------|
|------------------------------------------------------------|
|------------------------------------------------------------|
|
| PM-|    PM-------|                   PM------------|
| E  E E  E         E       E          E             E
|------------------------------------------------------------|
|------------------------------------------------------------|
|------------------------------------------------------------|
|------4--------------------4--------------------------------|
|-2--2-2--2---------2-------2----------2-------------0-------|
|------------------------------------------------------------|


  B5                          C5             A5                B5
                   |------6-------|                    |--3--|
   T  T  T  T  E   T  T  S  S  S  E  T  T  S  T  T  S  S  S  S  T  T  S
|----14-17--------------------------------14-17----------17h20-20---------|
|-16-------16-----------16-19----------16-------16----19----------19------|
|-------------14\----17-------17----17-------------14----------------17---|
|-----------------19-------------17---------------------------------------|
|-------------------------------------------------------------------------|
|-------------------------------------------------------------------------|
|
|  E           E   E           E     E        E        E        E
|-------------------------------------------------------------------------|
|-------------------------------------------------------------------------|
|--------------4----------------------------------------------------------|
|--4-----------4---4-----------5-----5--------2--------2--------4---------|
|--2-----------2---2-----------3-----3--------0--------0--------2---------|
|-------------------------------------------------------------------------|


                                 |--3--|  |-----5:3-----|
   T  T  T  T  T  T  S  T  T  S  S  S  S  S  S  S  S    S  S  T  T  T  T  T  T  S
|----------------------------17-20----------20h23-23---------------17h20-20-------|
|-------19h22-22----------19-------19----22------------22-------19----------19----|
|----20----------20----20-------------17------------------20-20----------------17-|
|-21----------------19------------------------------------------------------------|
|---------------------------------------------------------------------------------|
|---------------------------------------------------------------------------------|
|
|  PM---------|                  PM------|                    PM---------|
|  E           E        E        E        E          E        E           E
|---------------------------------------------------------------------------------|
|---------------------------------------------------------------------------------|
|---------------------------------------------------------------------------------|
|-----------------------4----------------------------4----------------------------|
|--2-----------2--------2--------2--------2----------2--------2-----------0-------|
|---------------------------------------------------------------------------------|


  B5                               D5
   T  T  T  T  T  T  S  T  T  T  T  T  T  T  T  T  T  T  T  T  T  S  E.    +S
|-------18h21-21-------------19h22-22----------------20h23-23-------24----(24)\--||
|----20----------20-------21----------21p20-------22----------22-----------------||
|-21----------------18-22-------------------19-23----------------20--------------||
|--------------------------------------------------------------------------------||
|--------------------------------------------------------------------------------||
|--------------------------------------------------------------------------------||
|
|  E           E        E           E           E           E        E  E
|--------------------------------------------------------------------------------||
|--------------------------------------------------------------------------------||
|--------------------------------------------------------------------------------||
|--4-----------4--------4-----------7-----------7-----------7--------7--7--------||
|--2-----------2--------2-----------5-----------5-----------5--------5--5--------||
|--------------------------------------------------------------------------------||


 Theme
  E5          N.C.     E5      N.C.     E5
                                      ~~~~~
  Q    Q.      q   E    Q.      Q   E Q
|--------------------|--------------------|
|-----\9------11-----|-12------11---9-9---|
|--------------------|--------------------|
|--------------------|--------------------|
|--------------------|--------------------|
|--------------------|--------------------|
|
| PM|            PM|              PM--|
| E E  E  E E  E E E    E  E E  E E E E E
|--------------------|--------------------|
|--------------------|--------------------|
|------9--9-9--9-----|--9--9-9--9-------9-|
|------9--9-9--8-----|--9--9-9--8-------9-|
|------7--7-7--7-----|--7--7-7--7-------7-|
|-0-0------------0-0-|------------0-0-0---|


                N.C.     E6         E5
 ~~~~~~                                      ~~
  +Q     Q.      q   E     Q.        Q.      Q
|----------------------|-------------------------|
|-(9)\---9------11-----|-/14--------12------11---|
|----------------------|-------------------------|
|----------------------|-------------------------|
|----------------------|-------------------------|
|----------------------|-------------------------|
|
|  PM--|           PM|                  PM--|
|  E   E E  E E  E E E     E   E  E  E  E E  E E
|----------------------|-------------------------|
|----------------------|-------------------------|
|--------9--9-9--9-----|-------------9---------9-|
|--------9--9-9--8-----|--11--11-11--9---------9-|
|--------7--7-7--7-----|---7---7--7--7---------7-|
|--0---0-----------0-0-|----------------0-0--0---|


         E5     N.C.     E5       N.C.          E5
    ~~~~                                      ~~~~~
   +Q    Q.      q   E     Q.      Q     a  E Q
|----------------------|--------------------------|
|-(11)---9------11-----|-/12------11---(11)s9-9---|
|----------------------|--------------------------|
|----------------------|--------------------------|
|----------------------|--------------------------|
|----------------------|--------------------------|
|
|   PM-|           PM|               PM-------|
|   E  E E  E E  E E E     E  E E  E E      E E E
|----------------------|--------------------------|
|----------------------|--------------------------|
|--------9--9-9--9-----|---9--9-9--9------------9-|
|--------9--9-9--8-----|---9--9-9--8------------9-|
|--------7--7-7--7-----|---7--7-7--7------------7-|
|---0--0-----------0-0-|-------------0------0-0---|


                 N.C.     E5            (E)
 ~~~~~
  +H         S S S  S S S  S S    S   S S S  S S S  S S S  S S S S S S
|------------------------------|---------------------------------------|
|-(9)-------12-0-0-11-0-0-12-0-|--0--11-0-0-14-0-0-12-0-0-11-0-0-7-0-0-|
|------------------------------|---------------------------------------|
|------------------------------|---------------------------------------|
|------------------------------|---------------------------------------|
|------------------------------|---------------------------------------|
|
|  PM-|               PM                PM-------|
|  E  E E E  E   E    E    E     +E     S S  E   E    E    E   E   E
|------------------------------|---------------------------------------|
|------------------------------|---------------------------------------|
|-------9-9--9---9---------9---|-(9)-----------------------------------|
|-------9-9--9---8---------9---|-(9)-----------------------------------|
|-------7-7--7---7---------7---|-(7)------------------7----------------|
|--0--0---------------0--------|--------0-0--6---7---------7---6---4---|


       E5      N.C.     E5      N.C.     E5                N.C.
                                       ~~~~~~~~~~~
  E  E  Q.      q   E    Q.      Q   E Q     +Q     Q.      q    E
|---------------------|--------------------|-----------------------|
|-9\---/9------11-----|-12------11---9-9---|-(9)\---9------11---14-|
|---------------------|--------------------|-----------------------|
|---------------------|--------------------|-----------------------|
|---------------------|--------------------|-----------------------|
|---------------------|--------------------|-----------------------|
|
| PM-|            PM|              PM--|      PM--|           PM|
| E  E  E  E E  E E E    E  E E  E E E E E    E   E E  E E  E E  E
|---------------------|--------------------|-----------------------|
|---------------------|--------------------|-----------------------|
|-------9--9-9--9-----|--9--9-9--9-------9-|--------9--9-9--9------|
|-------9--9-9--8-----|--9--9-9--8-------9-|--------9--9-9--8------|
|-------7--7-7--7-----|--7--7-7--7-------7-|--------7--7-7--7------|
|-0--0------------0-0-|------------0-0-0---|--0---0-----------0--0-|


  E6                      E5
    \0.5/   \0.5/   \0.5/      \0.5/      \0.5/   \0.5/
   +E      +E      +E      E  +E      E  +E      +E
|-------------------------------------------------------|
|-(14)----(14)----(14)----12-(12)----11-(11)----(11)----|
|-------------------------------------------------------|
|-------------------------------------------------------|
|-------------------------------------------------------|
|-------------------------------------------------------|
|
|                              PM-------|
|   E       E       E      E   E      E   E       E
|-------------------------------------------------------|
|-------------------------------------------------------|
|--------------------------9----------------------9-----|
|--11------11------11------9----------------------9-----|
|---7-------7-------7------7----------------------7-----|
|------------------------------0------0---0-------------|


            E5      N.C.     E5       N.C.          E5
    \0.5/
                                                  ~~~~~
   +Q        Q.      q   E     Q.      Q     a  E Q
|--------------------------|--------------------------|
|-(11)/-----\9------11-----|-/12------11---(11)s9-9---|
|--------------------------|--------------------------|
|--------------------------|--------------------------|
|--------------------------|--------------------------|
|--------------------------|--------------------------|
|
|   PM----|            PM|               PM-------|
|   E     E  E  E E  E E E     E  E E  E E      E E E
|--------------------------|--------------------------|
|--------------------------|--------------------------|
|------------9--9-9--9-----|---9--9-9--9------------9-|
|------------9--9-9--8-----|---9--9-9--8------------9-|
|------------7--7-7--7-----|---7--7-7--7------------7-|
|---0-----0------------0-0-|-------------0------0-0---|


                    N.C.        E5       (E)
 ~~~~~                                                                    ~~~
                            |3|
  +Q.       S  S  E  +S   S E S E   +E    S  T  T  T  T  S  +S   S S S E +Q
|---------/14-14-14-(14)\---------|------12S19-19-19-19-19-(19)\---------------|
|-(9)---------------------9-9-9-9-|-(9)/-------------------------9-9-9-9-(9)---|
|---------------------------------|--------------------------------------------|
|---------------------------------|--------------------------------------------|
|---------------------------------|--------------------------------------------|
|---------------------------------|--------------------------------------------|
|
|  PM-|                     PM            PM---------------|
|  E  E E   E     E   E     E   E   +E    S  S     E         E     E   E  E  E
|---------------------------------|--------------------------------------------|
|---------------------------------|--------------------------------------------|
|-------9---9-----9---9---------9-|-(9)----------------------------------------|
|-------9---9-----9---8---------9-|-(9)----------------------------------------|
|-------7---7-----7---7---------7-|-(7)----------------------------7-----------|
|--0--0---------------------0-----|-------0--0-----6---------7---------7--6--4-|


  F#          F#sus4    F#      F#sus4     F#5
                    PM                   ~~~~~
  Q    Q.      q    e    Q.      Q.      Q
|---------------------|----------------------|
|-----11------12------|-14------12------11---|
|------------------11-|----------------------|
|---------------------|----------------------|
|---------------------|----------------------|
|---------------------|----------------------|
|
| PM|            PM|                PM--|
| E E  E  E E  E E  E    E  E E  E  E E  E E
|---------------------|----------------------|
|---------------------|----------------------|
|------3--3-3--4------|--3--3-3--4-----------|
|------4--4-4--4------|--4--4-4--4---------4-|
|---------------------|--------------------4-|
|-2-2------------2--2-|-------------2-2--2-2-|


         F#      F#sus4           F#
 ~~~~~~
   +Q    E  Q.      q      Q.        Q.      Q
|-----------------------|------------------------|
|-(11)-----11------12---|-14b16r====14------11---|
|-----------------------|------------------------|
|-----------------------|------------------------|
|-----------------------|------------------------|
|-----------------------|------------------------|
|
|                   PM|                 PM--|
|   E  E E  E  E E  E E    E    E E  E  E E  E E
|-----------------------|------------------------|
|-----------------------|------------2-----------|
|--------3--3--3-4------|--4----4-3--3-----------|
|--------4--4--4-4------|--4----4-4--4---------4-|
|-----------------------|----------------------4-|
|---2--2------------2-2-|---------------2-2--2-2-|


  E5           N.C.     E5      N.C.(E)
   Q    Q.      q   E    Q.      Q.      Q
|---------------------|--------------------------|
|-11/---9------11-----|-19-----------------------|
|---------------------|---------16------15-------|
|---------------------|--------------------------|
|---------------------|--------------------------|
|---------------------|--------------------------|
|
|  PM-|           PM|               PM|
|  E  E E  E E  E E E    E  E E  E  E E  S S  E
|---------------------|--------------------------|
|---------------------|--------------------------|
|-------9--9-9--9-----|--9--9-9--9---------------|
|-------9--9-9--8-----|--9--9-9--8-----------[6]-|
|-------7--7-7--7-----|--7--7-7--7---------7-----|
|--0--0-----------0-0-|-------------0-0--7-------|


           E5       N.C.   E5       N.C.
                                 ~~~
   H            +Q     +E   E    W
|-16b18========(16)r==(16)-16-|-16------------------|
|-----------------------------|---------------------|
|-----------------------------|---------------------|
|-----------------------------|---------------------|
|-----------------------------|---------------------|
|-----------------------------|---------------------|
|
|        PM             PM          PM----|
|  E     E E E   E  E   E   E   +E  S S E E E E E E
|-----------------------------|---------------------|
|-----------------------------|---------------------|
|----------9-9---9--9-------9-|-(9)-----------------|
|----------9-9---9--8-------9-|-(9)-----------------|
|--7-------7-7---7--7-------7-|-(7)---------7-------|
|--------0--------------0-----|-----0-0-6-7---7-6-4-|


   Interlude
    N.C.(E)
    Gtrs I, II
    PM------------------|   PM------------------------|   PM---
    S S S S S S S S S S S E S E   S S S S S S S S S S S E S E
||------------------------------|-----------------------------|
||o-----------------------------|-----------------------------|
||------------------------------|-----------------------------|
||------------------------------|-----------------------------|
||o-----------------------------|-----------------------------|
||--6-7-6-4-0---6-7-6-4-0---0-0-|-6-7-6-4-0---6-7-6-4-0---0-0-|


 -------------------------------------------------------------|
  S S S S S S S S S S S E S E   S S S S S S S S S S S S S S S S
|-----------------------------|----------------------------------||
|-----------------------------|---------------------------------o||
|-----------------------------|----------------------------------||
|-----------------------------|----------------------------------||
|-----------------------------|---------------------------------o||
|-6-7-6-4-0---6-7-6-4-0---0-0-|-6-7-6-4-0-0-7-9-7-6-0-0-6-7-6-0--||


    PM-------------------|   PM-------------------------|   PM---
    S  S S S S S S S S S S E S E   S  S S S S S S S S S S E S E
||-------------------------------|------------------------------|
||o------------------------------|------------------------------|
||-------------------------------|------------------------------|
||-------------------------------|------------------------------|
||o------------------------------|------------------------------|
||--9-10-9-7-0---6-7-6-4-0---0-0-|-9-10-9-7-0---6-7-6-4-0---0-0-|


 ----------------------|   PM---------------------------------------|
  S  S S S S S S S S S S E S E   S  S S S S S  S  S  S S S S S  S S S
|------------------------------|---------------------------------------||
|------------------------------|--------------------------------------o||
|------------------------------|---------------------------------------||
|------------------------------|---------------------------------------||
|------------------------------|--------------------------------------o||
|-9-10-9-7-0---6-7-6-4-0---0-0-|-9-10-9-7-0-0-10-12-10-9-0-0-9-10-9-0--||


     PM-------------------------------------------------------------------|
     S  S  S  S S S S  S S S S S S S E    S  S  S  S S S S  S S S S S S S E
||-------------------------------------|------------------------------------|
||o------------------------------------|------------------------------------|
||-------------------------------------|------------------------------------|
||-------------------------------------|------------------------------------|
||o------------------------------------|------------------------------------|
||--12-13-12-10-0-0-8-10-8-7-0-----0-0-|-12-13-12-10-0-0-8-10-8-7-0-----0-0-|


   PM---------------------------------
   S  S  S  S S S S  S S S S S S S E
|------------------------------------|
|------------------------------------|
|------------------------------------|
|------------------------------------|
|------------------------------------|
|-12-13-12-10-0-0-8-10-8-7-0-----0-0-|


 ---------------------------------------|
   S  S  S  S S S  S  S  S  S S S S S S S
|------------------------------------------||
|-----------------------------------------o||
|------------------------------------------||
|------------------------------------------||
|-----------------------------------------o||
|-12-13-12-10-0-0-13-15-13-12-0-0-7-8-7-0--||


     PM--------------------------------------------
     S  S  S  S S S  S  S  S  S S S  S  S  S  S  3x
||-----------------------------------------------||
||o---------------------------------------------o||
||-----------------------------------------------||
||-----------------------------------------------||
||o---------------------------------------------o||
||--15-16-15-13-0-0-13-15-13-12-0-0-10-12-10-12--||


 ------------------------------------------|
   S  S  S  S S S  S  S  S  S S S  S  S  S S
|---------------------------------------------|
|---------------------------------------------|
|---------------------------------------------|
|---------------------------------------------|
|---------------------------------------------|
|-15-16-15-13-0-0-13-15-13-12-0-0-10-12-10-0--|


   PM-----------------------------------------
   S  S  S  S S S  S  S  S S  S  S  S S  S S
|--------------------------------------------|
|--------------------------------------------|
|--------------------------------------------|
|--------------------------------------------|
|--------------------------------------------|
|-18-19-18-16-0-0-16-18-16-0-16-18-16-0-14-0-|


 ------------------------------------------|
   S  S  S  S S S  S  S  S S  S  S  S S  S S
|--------------------------------------------|
|--------------------------------------------|
|--------------------------------------------|
|--------------------------------------------|
|--------------------------------------------|
|-18-19-18-16-0-0-16-18-16-0-16-18-16-0-14-0-|


   PM--------------------------------------|
                                                                                     |--------7--------|
   S  S  S  S S S  S  S  S  S S S  S  S  S  S    S  S  S  S  S  S  S  S  S  S  S  S  S  S  S  S  S  S  S
|---------------------------------------------|----------------------------------------------------------|
|---------------------------------------------|----------------------------------------------------------|
|---------------------------------------------|-------------------------------------------------13-15-16-|
|---------------------------------------------|----------------------------13-14-16-13-14-16-16----------|
|---------------------------------------------|----------13-14-16-13-14-16-------------------------------|
|-19-21-19-18-0-0-18-19-18-16-0-0-16-18-16-14-|-12-14-16-------------------------------------------------|


                                       |------6-------|
   S  S  S  S  S  S  S  S  S  S  S  S  S  S  S  S  S  S
|----------------------------------------------16-18-19---|
|----------------------------16-17-19-16-17-19------------|
|----------15-16-18-15-16-18------------------------------|
|-14-16-18------------------------------------------------|
|---------------------------------------------------------|
|---------------------------------------------------------|


  E5
  Gtr III
   ~~~~~~~~~~~~~~~~~~~~~~~~~~~~~~~~~~~~~~~~~~~~~~~~~~~~~~~~~~~~
   W                             +W
|-24--------------------------|-(24)--------------------------|
|-21--------------------------|-(21)--------------------------|
|-----------------------------|-------------------------------|
|-----------------------------|-------------------------------|
|-----------------------------|-------------------------------|
|-----------------------------|-------------------------------|
|
| Gtrs I, II
|  S S S S S S S S S S S S Q      S  S S S S S S S S S S S Q
|-----------------------------|-------------------------------|
|-----------------------------|-------------------------------|
|--9-9-9-9-9---9-9-9-9-9------|---9--9-9-9-9---9-9-9-9-9------|
|--9-9-9-9-9---9-9-9-9-9------|---9--9-9-9-9---9-9-9-9-9------|
|--7-7-7-7-7---7-7-7-7-7------|---7--7-7-7-7---7-7-7-7-7------|
|--0-0-0-0-0---0-0-0-0-0------|---0--0-0-0-0---0-0-0-0-0------|


 ~~~~~~~~~~~~~~~~~~~~~~~~~~~~~~~~~~~~~
   W                             +H..                          +E
|-----------------------------|----------------------------------------|
|-23--------------------------|-(23)--------------------------(23)\----|
|-21--------------------------|-(21)--------------------------(21)\----|
|-----------------------------|----------------------------------------|
|-----------------------------|----------------------------------------|
|-----------------------------|----------------------------------------|
|
|  S S S S S S S S S S S S Q      S   S S S S S S S S S S S Q
|-----------------------------|----------------------------------------|
|-----------------------------|----------------------------------------|
|--9-9-9-9-9---9-9-9-9-9------|---9---9-9-9-9---9-9-9-9-9--------------|
|--9-9-9-9-9---9-9-9-9-9------|---9---9-9-9-9---9-9-9-9-9--------------|
|--7-7-7-7-7---7-7-7-7-7------|---7---7-7-7-7---7-7-7-7-7--------------|
|--0-0-0-0-0---0-0-0-0-0------|---0---0-0-0-0---0-0-0-0-0--------------|


   ~~~~~~~~~~~~~~~~~~~~~~~~~~~~~~~~~~~~~~~~~~~~~~~~~~~~~~~~~~~~~~~~~~~
   W                             +H                 +E     E    +Q
|-----------------------------|--------------------------------------|
|-17--------------------------|-(17)---------------(17)--------------|
|-16--------------------------|-(16)---------------(16)---16---(16)--|
|-----------------------------|---------------------------15---(15)--|
|-----------------------------|--------------------------------------|
|-----------------------------|--------------------------------------|
|
|  S S S S S S S S S S S S Q      S  S S S S S S S   S  S  S S   Q
|-----------------------------|--------------------------------------|
|-----------------------------|--------------------------------------|
|--9-9-9-9-9---9-9-9-9-9------|---9--9-9-9-9---9-9---9--9--9---------|
|--9-9-9-9-9---9-9-9-9-9------|---9--9-9-9-9---9-9---9--9--9---------|
|--7-7-7-7-7---7-7-7-7-7------|---7--7-7-7-7---7-7---7--7--7---------|
|--0-0-0-0-0---0-0-0-0-0------|---0--0-0-0-0---0-0---0--0--0---------|


 ~~~~~~~~~~~~~~~~~~~~~~~~~~~~~~~~~~~~
   W                             +W
|-----------------------------|-------------------------------------|
|-----------------------------|-------------------------------------|
|-15--------------------------|-(15)--------------------------------|
|-14--------------------------|-(14)--------------------------------|
|-----------------------------|-------------------------------------|
|-----------------------------|-------------------------------------|
|
|  S S S S S S S S S S S S Q      S  S S S S S S S S S S S   Q
|-----------------------------|-------------------------------------|
|-----------------------------|-------------------------------------|
|--9-9-9-9-9---9-9-9-9-9------|---9--9-9-9-9---9-9-9-9-9------------|
|--9-9-9-9-9---9-9-9-9-9------|---9--9-9-9-9---9-9-9-9-9------------|
|--7-7-7-7-7---7-7-7-7-7------|---7--7-7-7-7---7-7-7-7-7------------|
|--0-0-0-0-0---0-0-0-0-0------|---0--0-0-0-0---0-0-0-0-0---(18)\----|


 Theme
  E5         N.C.     E5      N.C.     E5                N.C.
                                     ~~~~~~~~~~~
  Q   Q.      q   E    Q.      Q   E Q     +Q     Q.      q   E
|-------------------|--------------------|----------------------|
|-----9------11-----|-12------11---9-9---|-(9)/---9------11-----|
|-------------------|--------------------|----------------------|
|-------------------|--------------------|----------------------|
|-------------------|--------------------|----------------------|
|-------------------|--------------------|----------------------|
|
| PM|           PM|              PM--|      PM--|           PM|
| E E E  E E  E E E    E  E E  E E E E E    E   E E  E E  E E E
|-------------------|--------------------|----------------------|
|-------------------|--------------------|----------------------|
|-----9--9-9--9-----|--9--9-9--9-------9-|--------9--9-9--9-----|
|-----9--9-9--8-----|--9--9-9--8-------9-|--------9--9-9--8-----|
|-----7--7-7--7-----|--7--7-7--7-------7-|--------7--7-7--7-----|
|-0-0-----------0-0-|------------0-0-0---|--0---0-----------0-0-|


  E6        E5                           N.C.
                     ~~
   Q.        Q.      Q      +Q    Q.      q   E
|------------------------|-----------------------|
|-14--------12------11---|-(11)---9------11------|
|------------------------|-----------------------|
|------------------------|-----------------------|
|------------------------|-----------------------|
|------------------------|-----------------------|
|
|               PM--|        PM-|           PM|
|  E   E  E  E  E E  E E     E  E E  E E  E E E
|------------------------|-----------------------|
|------------------------|-----------------------|
|------------9---------9-|--------9--9-9--9------|
|-11--11-11--9---------9-|--------9--9-9--8------|
|--7---7--7--7---------7-|--------7--7-7--7------|
|---------------0-0--0---|---0--0-----------0-0--|


  E5       N.C.          E5                          N.C.              E5
                       ~~~~~~~~~~
    Q.      Q     a  E Q     +Q.       E  T  T  T  T  T  T  T  T  S  S  S  S
|--------------------------|---------/16p14p12-------------------14----------|
|-/12------11---(11)s9-9---|-(9)---------------16p14----------16----16-------|
|--------------------------|-------------------------16p15h16----------16s13-|
|--------------------------|-------------------------------------------------|
|--------------------------|-------------------------------------------------|
|--------------------------|-------------------------------------------------|
|
|             PM-------|      PM-|                                PM
|   E  E E  E E      E E E    E  E E   E  E           E           E     E
|--------------------------|-------------------------------------------------|
|--------------------------|-------------------------------------------------|
|---9--9-9--9------------9-|-------9---9--9-----------9-----------------9----|
|---9--9-9--8------------9-|-------9---9--9-----------8-----------------9----|
|---7--7-7--7------------7-|-------7---7--7-----------7-----------------7----|
|-------------0------0-0---|--0--0--------------------------------0----------|


         F#5
                      |------6-------|         |-3-| |-3-| |-3-| |-3-|
   S   S  T  T  T  T  S  S  S  S  S  S  S T T  S S S T T T T T T T T T S
|--------------------------------------------------------------------------|
|--------------------------------------------------------------------------|
|-15p=13-------------------------------------------------------------------|
|--------16p14p13h14-16p14p13----------\8-9p8------------------------------|
|-----------------------------16p14p13--------11p9p7-----------------------|
|----------------------------------------------------9p7p6h7p6p4h6p4p2p0---|
|
|         PM------------------|
| +E      S     S     E        E        E      E     E           E
|--------------------------------------------------------------------------|
|--------------------------------------------------------------------------|
|-(9)----------------------------------------------------------------------|
|-(9)----------------------------------------------------------------------|
|-(7)-----------------------------------7----------------------------------|
|---------0-----0-----6--------7---------------7-----6-----------4---------|


      E5     N.C.     E5      C        E5
                                     ~~~~~
  Q   Q.      q   E    Q.      Q   E Q
|-------------------|--------------------|
|-----9------11-----|-12------11---9-9---|
|-------------------|--------------------|
|-------------------|--------------------|
|-------------------|--------------------|
|-------------------|--------------------|
|
| PM|           PM|              PM--|
| E E E  E E  E E E    E  E E  E E E E E
|-------------------|--------------------|
|-------------------|--------------------|
|-----9--9-9--9-----|--9--9-9--9-------9-|
|-----9--9-9--8-----|--9--9-9--8-------9-|
|-----7--7-7--7-----|--7--7-7--7-------7-|
|-0-0-----------0-0-|------------0-0-0---|


                N.C.     E6         E5
 ~~~~~~                                      ~~
  +Q     Q.      q   E     Q.        Q.      Q
|----------------------|-------------------------|
|-(9)/---9------11-----|-/14--------12------11---|
|----------------------|-------------------------|
|----------------------|-------------------------|
|----------------------|-------------------------|
|----------------------|-------------------------|
|
|  PM--|           PM|                  PM--|
|  E   E E  E E  E E E     E   E  E  E  E E  E E
|----------------------|-------------------------|
|----------------------|-------------------------|
|--------9--9-9--9-----|-------------9---------9-|
|--------9--9-9--8-----|--11--11-11--9---------9-|
|--------7--7-7--7-----|---7---7--7--7---------7-|
|--0---0-----------0-0-|----------------0-0--0---|


          E5     N.C.     E5       N.C.          E5
                                               ~~~~~
   +Q     Q.      q   E     Q.      Q     a  E Q
|-----------------------|--------------------------|
|-(11)/---9------11-----|-/12------11---(11)s9-9---|
|-----------------------|--------------------------|
|-----------------------|--------------------------|
|-----------------------|--------------------------|
|-----------------------|--------------------------|
|
|   PM--|           PM|               PM-------|
|   E   E E  E E  E E E     E  E E  E E      E E E
|-----------------------|--------------------------|
|-----------------------|--------------------------|
|---------9--9-9--9-----|---9--9-9--9------------9-|
|---------9--9-9--8-----|---9--9-9--8------------9-|
|---------7--7-7--7-----|---7--7-7--7------------7-|
|---0---0-----------0-0-|-------------0------0-0---|


               N.C.E5        (E)
 ~~~~~~                   ~~~
  +H..              E    +W
|----------------------|---------------------|
|-(9)--------------[9]-|-(9)-----------------|
|----------------------|---------------------|
|----------------------|---------------------|
|----------------------|---------------------|
|----------------------|---------------------|
|
|  PM--|         PM          PM----|
|  E   E E E E E E  E    +E  S S E E E E E E
|----------------------|---------------------|
|----------------------|---------------------|
|--------9-9-9-9----9--|-(9)-----------------|
|--------9-9-9-8----9--|-(9)-----------------|
|--------7-7-7-7----7--|-(7)---------7-------|
|--0---0---------0-----|-----0-0-6-7---7-6-4-|


  F#          F#sus4    F#      F#sus4     F#5
                    PM                   ~~~~~
  Q    Q.      q    e    Q.      Q.      Q
|---------------------|----------------------|
|-----11------12------|-14------12------11---|
|------------------11-|----------------------|
|---------------------|----------------------|
|---------------------|----------------------|
|---------------------|----------------------|
|
| PM|            PM|                PM--|
| E E  E  E E  E E  E    E  E E  E  E E  E E
|---------------------|----------------------|
|---------------------|----------------------|
|------3--3-3--4------|--3--3-3--4-----------|
|------4--4-4--4------|--4--4-4--4---------4-|
|---------------------|--------------------4-|
|-2-2------------2--2-|-------------2-2--2-2-|


         F#      F#sus4         F#
 ~~~~~~                                     ~~
   +Q    E  Q.      q      E  E  E  Q.      Q
|-----------------------|-----------------------|
|-(11)-----11------12---|-16-17-16-14------11---|
|-----------------------|-----------------------|
|-----------------------|-----------------------|
|-----------------------|-----------------------|
|-----------------------|-----------------------|
|
|                   PM|                PM--|
|   E  E E  E  E E  E E    E  E  E  E  E E  E E
|-----------------------|-----------------------|
|-----------------------|-----------2-----------|
|--------3--3--3-4------|--4--4--3--3-----------|
|--------4--4--4-4------|--4--4--4--4---------4-|
|-----------------------|---------------------4-|
|---2--2------------2-2-|--------------2-2--2-2-|


  E5            N.C.     E5      N.C.       E5
   +Q    Q.      q   E    Q.      Q.      Q
|----------------------|----------------------|
|-(11)---9------11-----|-19-------------------|
|----------------------|---------16------15---|
|----------------------|----------------------|
|----------------------|----------------------|
|----------------------|----------------------|
|
|   PM-|           PM|               PM--|
|   E  E E  E E  E E E    E  E E  E  E E  E E
|----------------------|----------------------|
|----------------------|----------------------|
|--------9--9-9--9-----|--9--9-9--9---------9-|
|--------9--9-9--8-----|--9--9-9--8---------9-|
|--------7--7-7--7-----|--7--7-7--7---------7-|
|---0--0-----------0-0-|-------------0-0--0---|


                 N.C.E5         (E)
   ~~~~~~~~~~~~~~~~~~~~~~~~~~~~~
   W                      W
|-16-------------------|-18----------------------|
|-19pb21---------------|-21pb23------------------|
|----------------------|-------------------------|
|----------------------|-------------------------|
|----------------------|-------------------------|
|----------------------|-------------------------|
|
|  PM----|         PM           PM----|
|  E     E E E E E E E   +E     S S E E E E E E
|----------------------|-------------------------|
|----------------------|-------------------------|
|----------9-9-9-9---9-|-(9)---------------------|
|----------9-9-9-8---9-|-(9)---------------------|
|----------7-7-7-7---7-|-(7)------------7--------|
|--0-----0---------0---|--------0-0-6-7---7-6-4--|


 Outro Guitar Solo
                    N.C.      E5       N.(E)
   H            +Q     E  E    +H         +E    E      +Q
|-18b19========(18)---18-18-|-(18)-------(18)r-18b19==(18)-------|
|---------------------------|------------------------------------|
|---------------------------|------------------------------------|
|---------------------------|------------------------------------|
|---------------------------|------------------------------------|
|---------------------------|------------------------------------|
|
|  PM----|             PM|                 PM--|
|  E     E E E   E  E  E  E     E  E E E   E    E       S  S  E
|---------------------------|------------------------------------|
|---------------------------|------------------------------------|
|----------9-9---9--9-------|---9--9-9-9---------------------[1]-|
|----------9-9---9--8-------|---9--9-9-8-------------------2-----|
|----------7-7---7--7-------|---7--7-7-7----------------2--------|
|--0-----0-------------0--0-|--------------0----0----------------|


            E5         N.C.E5       N.C.
   +E   +E   E  E  +H           +Q      S  E.       +E   +E   E  E
|-(18)r(18)-18-18-(18)-------|-(18)-------16b18====(16)r(16)-16-16---|
|----------------------------|---------------------------------------|
|----------------------------|---------------------------------------|
|----------------------------|---------------------------------------|
|----------------------------|---------------------------------------|
|----------------------------|---------------------------------------|
|
|        PM              PM         PM-----------|
|   E    E   E  E   E  E E E    +E  S S E        E   E    E   E  E
|----------------------------|---------------------------------------|
|----------------------------|---------------------------------------|
|------------9--9---9--9---9-|--(9)----------------------------------|
|---2--------9--9---9--8---9-|--(9)----------------------------------|
|------------7--7---7--7---7-|--(7)------------------7---------------|
|--------0---------------0---|------0-0-6--------7--------7---6--4---|


         E5          N.C.                         E5                    N.(E)
                                        |--3--|    |--3--|  |--3--|
   +Q.      +E     E  S  T  T  S  T  T  S  S  S    S  S  S  S  S  S  Q    E  a  E  E     E
|-(16)-----(16)\--------------------------------|-------------------------------------------|
|----------------/21-19h21p19s17h19p17s16h17p16p|=15------------------------13s16-----------|
|-----------------------------------------------|----16p15h16p15p13---------------16---[16]-|
|-----------------------------------------------|-------------------16\---------------------|
|-----------------------------------------------|-------------------------------------------|
|-----------------------------------------------|-------------------------------------------|
|
|   PM-|                       PM------|                                  PM---|
|   E  E E   E     E  E        E        E          E        E        E  E E     E  S S   E
|-----------------------------------------------|-------------------------------------------|
|-----------------------------------------------|-------------------------------------------|
|--------9---9-----9--9-------------------------|--9--------9--------9--9---------------[1]-|
|--------9---9-----9--8-------------------------|--9--------9--------9--8------------2------|
|--------7---7-----7--7-------------------------|--7--------7--------7--7----------2--------|
|---0--0-----------------------0--------0-------|-------------------------0-----0-----------|


                E5                              N.C.        E5
        |--3--|                      |---3----|              |-----5-----|
   +E   S  S  S  S  S      +S   +S   T  T  S  S  S  S  S  S  T  T  T  T  T
|---------------------------------------------------------------------------|
|---------------------------------------------------------------------------|
|-(16)-------15-16-15b16==(15)r(15)-------------18--------------------------|
|------14h16------------------------16p15h16h18----18-16-14-13h14h16p14p13--|
|---------------------------------------------------------------------------|
|---------------------------------------------------------------------------|
|
|       PM                                             PM
|   E   E        E          E        E           E     E     E
|---------------------------------------------------------------------------|
|---------------------------------------------------------------------------|
|----------------9----------9--------9-----------9-----------9--------------|
|---2------------9----------9--------9-----------8-----------9--------------|
|----------------7----------7--------7-----------7-----------7--------------|
|-------0----------------------------------------------0--------------------|


      (E)                                            E5      N.C.
   ~~~
           |------6-------|
   Q       S  S  S  S  S  S  Q    S  S  S  S    Q.      E  E  E  E   E
|--------------------------------------------|-------------------------|
|--------------------------------------------|-------------------------|
|--------------------------------------------|-------------------------|
|-14-----------------------------------------|---------------------/16-|
|---------18p16p14s13h14h16S18---16-14s13----|---------14-14p13-13-----|
|-----------------------------------------14s|=12----------------------|
|
|     PM-----------|                            PM-|             PM|
| +E  S S  E        E        E E  E     E       E  E E  E  E  E  E   E
|--------------------------------------------|-------------------------|
|--------------------------------------------|-------------------------|
|-(9)----------------------------------------|-------9--9--9--9--------|
|-(9)----------------------------------------|-------9--9--9--8--------|
|-(7)------------------------7---------------|-------7--7--7--7--------|
|-----0-0--6--------7----------7--6-----4----|--0--0-------------0---0-|


  E5         N.C.(E)                    E5          N.C.E5
   ~~                              ~~~           ~~~
   Q    +E     E  E  E  E    E     Q.      S  S  Q.      S  S
|-------------------------------|-16------14-16-18------16-18-|
|---------------------------19--|-----------------------------|
|------------/16-16p15-15-------|-----------------------------|
|-14---(14)\--------------------|-----------------------------|
|-------------------------------|-----------------------------|
|-------------------------------|-----------------------------|
|
|                 PM|                 PM              PM
|  E E   E     E  E  E  S S  E     E  E E  E     E  E E  E
|-------------------------------|-----------------------------|
|-------------------------------|-----------------------------|
|--9-9---9-----9------------[1]-|-------9--9-----9--9----9----|
|--9-9---9-----8----------2-----|--2----9--9-----9--8----9----|
|--7-7---7-----7--------2-------|-------7--7-----7--7----7----|
|-----------------0--0----------|-----0---------------0-------|


         (E)                                            E5               N.C.
                                                                               ~~
   |---3----|    |---3---|                               |---3---|  |---3---|
   E   E    E    E  E    E  E     +E   +E   E    a  Q    E  E    E  E  E    E  Q
|-19--18---19---21-19---21-21b23r(21)-(21)-19-|-17s18---16-14--------------14------|
|---------------------------------------------|-----------------17-16-17------14---|
|---------------------------------------------|------------------------------------|
|---------------------------------------------|------------------------------------|
|---------------------------------------------|------------------------------------|
|---------------------------------------------|------------------------------------|
|
|        PM-----------|                             PM|                        PM|
| +E     S    S  E    E     E      E    E   E       E E  E    E     E    E     E E
|---------------------------------------------|------------------------------------|
|---------------------------------------------|------------------------------------|
|-(9)-----------------------------------------|----------9----9-----9----9---------|
|-(9)-----------------------------------------|----------9----9-----9----8---------|
|-(7)-----------------------7-----------------|----------7----7-----7----7---------|
|--------0----0--6----7------------7----6---4-|-----0-0------------------------0-0-|


  E5               N.C. (E)                                    E5            N.C.    E5
   |---3---|  |---3---|  |---3---|  |-----3-----|    |---3---|  |---3---|
   E  E    E  E  E    E  E  E    E  E    E      E    E  E    E  E  E    E  Q    S  S  S  S
|-------------------------------------------------|------------------------------------------|
|-------------------------------------------------|------------14-17---16-14------16---------|
|-16-15---13--------------------13----------------|-13-16---15-----------------16----16------|
|------------14--------------------14---13-----14-|-------------------------------------14---|
|---------------16---14-13------------------------|------------------------------------------|
|--------------------------14---------------------|------------------------------------------|
|
|                        PM---|                           PM                    PM
|  E    E     E    E     E    E     S S     E        E    E     E    E     E E  E     E
|-------------------------------------------------|------------------------------------------|
|-------------------------------------------------|------------------------------------------|
|--9----9-----9----9-----------------------[1]----|-------------9----9-----9-9--------9------|
|--9----9-----9----8------------------2-----------|--2----------9----9-----9-8--------9------|
|--7----7-----7----7----------------2-------------|-------------7----7-----7-7--------7------|
|------------------------0----0-------------------|-------0---------------------0------------|


         (E)
   S   S  S  S  S  S  S  S  S  S  S  S  S  S  S  S
|--------------------------------------------------|
|--------------------------------------------------|
|-----------15-------------------------------------|
|-13--14-16----16----------13h16p13----------------|
|-----------------14-13-14----------14-13s11----11-|
|--------------------------------------------12----|
|
|         PM---------|
| +E      S  S  E     E     E     E     E     E
|--------------------------------------------------|
|--------------------------------------------------|
|-(9)----------------------------------------------|
|-(9)----------------------------------------------|
|-(7)-----------------------7----------------------|
|---------0--0--6-----7-----------7-----6-----4----|


              E5                N.C.
   S  S  S  S  S  S  S  S  S  S  S  S  S  S  S  S
|-------------------------------------------------|
|-------------------------------------------16-17-|
|----------------------------------15-16-18-------|
|-------------13h16p14p13-14s16h18----------------|
|-14p13h14s16-------------------------------------|
|-------------------------------------------------|
|
|  PM---|                              PM---|
|  E     E     E     E     E     E     E     E
|-------------------------------------------------|
|-------------------------------------------------|
|--------------9-----9-----9-----9----------------|
|--------------9-----9-----9-----8----------------|
|--------------7-----7-----7-----7----------------|
|--0-----0-----------------------------0-----0----|


  E5                                 N.C.        (E)
   |---------7---------|                          |--3--|
   S  S  S  S    S  S  S  T  T  T  T  T  T  T  T  S  S  S  T  T  T  T  S  S  T   T  T  T
|------------------------------------------------16-------------------------16p=14s12s14-|
|-19p17p16---------------16h17-17h19p17p16-17h19----19p17p16-------16-17-19--------------|
|----------18p==16p15h18-------------------------------------18p16-----------------------|
|----------------------------------------------------------------------------------------|
|----------------------------------------------------------------------------------------|
|----------------------------------------------------------------------------------------|
|
|                                                 PM------|
|  E          E           E           E           E        E           S  S  E
|----------------------------------------------------------------------------------------|
|----------------------------------------------------------------------------------------|
|--9----------9-----------9-----------9-------------------------------------[1]----------|
|--9----------9-----------9-----------8-----------------------------------2--------------|
|--7----------7-----------7-----------7--------------------------------2-----------------|
|-------------------------------------------------0--------0-----------------------------|


                          E5                            N.C.                 E5
   T  T  T  T  T  T  T  T  T  T  T  T  T  T  T  T  S  S  T  T  S  T  T  T  T  T  T  T  T
|-16h18p16p14-------------14h16h18p16p14h16h18h19p18p16-------------------------------------|
|-------------17p16p14h17-------------------------------19p17p16-14h16----------------------|
|----------------------------------------------------------------------16h18p16-------------|
|-------------------------------------------------------------------------------18p16h18----|
|-------------------------------------------------------------------------------------------|
|-------------------------------------------------------------------------------------------|
|
|              PM                                                 PM
|  E           E           E           E           E     E        E           E
|-------------------------------------------------------------------------------------------|
|-------------------------------------------------------------------------------------------|
|--------------------------9-----------9-----------9-----9--------------------9-------------|
|--2-----------------------9-----------9-----------9-----8--------------------9-------------|
|--------------------------7-----------7-----------7-----7--------------------7-------------|
|--------------0--------------------------------------------------0-------------------------|


                     (E)
   |-------6-------|        |------6-------|                    |------6-------|
   T   T  T  T  T  T  S  S  S  S  S  S  S  S  S  S  T  T  T  T  S  S  S  S  S  S
|--------------------------------------------------------------------------------|
|--------------------------------------------------------------------------------|
|--------------------------------------------------------------18p16p15----------|
|-18p=16p14s13----------------------18p16p14s13----16h18p16p14----------18p15p14-|
|--------------16p14-13----18p16p14-------------14-------------------------------|
|-----------------------14-------------------------------------------------------|
|
|                     PM------------|
| +E                  S  S  E        E        E     E           E        E
|--------------------------------------------------------------------------------|
|--------------------------------------------------------------------------------|
|-(9)----------------------------------------------------------------------------|
|-(9)----------------------------------------------------------------------------|
|-(7)-----------------------------------------7----------------------------------|
|---------------------0--0--6--------7--------------7-----------6--------4-------|


                    E5                         N.C.
                                                ~~~~~~~~~~~~~
   |------6-------|  |------6-------|  |--3--|
   S  S  S  S  S  S  S  S  S  S  S  S  S  S  S  E  +E   +E
|-------------------------------------19p18p16-21-(21)-(21)\-|
|----------19p17p16----------19p17p16------------------------|
|-18p16p15----------18p16p15---------------------------------|
|------------------------------------------------------------|
|------------------------------------------------------------|
|------------------------------------------------------------|
|
|  PM------|                                        PM-|
|  E        E        E        E        E        E   E    E
|------------------------------------------------------------|
|------------------------------------------------------------|
|--------------------9--------9--------9--------9------------|
|--------------------9--------9--------9--------8------------|
|--------------------7--------7--------7--------7------------|
|--0--------0---------------------------------------0----0---|


  E5                 N.C(E)
    S  S  S  S  S  S  S  S  S  S  S  S  S  S  S   S
|-----21-------19-------18-------16-------14--------|
|-/19----19s17----17s16----16s14----14s12----12s=11-|
|---------------------------------------------------|
|---------------------------------------------------|
|---------------------------------------------------|
|---------------------------------------------------|
|
|                           PM---|
|   E     E     E     E     E     E     S  S  E
|---------------------------------------------------|
|---------------------------------------------------|
|---9-----9-----9-----9----------------------[1]----|
|---9-----9-----9-----8--------------------2--------|
|---7-----7-----7-----7-----------------2-----------|
|---------------------------0-----0-----------------|


             E5          N.C.    E5          (E)
                                                         |-3-| |-3-| |-3-| |-3-|
   S  S S  S S S S S S S S S S S S S    S  S S S S S S S S S S S S S S S S S S S
|-12------11-----9-----7-------------|----------------------------------------------|
|----11s9----9s7---7s5---5p0h4p0h5p0h|==7p=0h5p0h4p0h2p0----------------------------|
|------------------------------------|-------------------6p4p3----------------------|
|------------------------------------|-------------------------6p4p2----------------|
|------------------------------------|-------------------------------6p4p2----------|
|------------------------------------|-------------------------------------6p4p2----|
|
|       PM                   PM              PM------|
|  E    E    E   E   E   E   E   E     +E    S S E   E   E     E     E     E
|------------------------------------|----------------------------------------------|
|------------------------------------|----------------------------------------------|
|------------9---9---9---9-------9---|-(9)------------------------------------------|
|--2---------9---9---9---8-------9---|-(9)------------------------------------------|
|------------7---7---7---7-------7---|-(7)---------------7--------------------------|
|-------0--------------------0-------|-------0-0-6---7---------7-----6-----4--------|


        E5       N.C.       E5       N.C(E)
    PM|              PM|              PM-----------|
    E E  E  E  E  E  E  E    E  E  E  E  E  E  E    E
||------------------------|----------------------------|
||o-----17-17-17-17-------|-17-17-17-17----------------|
||------16-16-16-15-------|-16-16-16-15----------------|
||------14-14-14-14-------|-14-14-14-14----------------|
||o-----------------14-14-|-------------14-14-14---14--|
||--0-0-------------------|----------------------------|
|
|   PM|              PM|                 PM|
|   E E  E  E  E  E  E  E    E  E  E  E  E  E  S S  E
||------------------------|----------------------------|
||o-----------------------|----------------------------|
||-------9--9--9--9-------|--9--9--9--9------------[1]-|
||-------9--9--9--8-------|--9--9--9--8----------2-----|
||o------7--7--7--7-------|--7--7--7--7--------2-------|
||--0-0--------------0--0-|--------------0--0----------|


        E5       N.C.  E5        (E)
      PM             PM
   E  E  E  E  E  E  E  E    +E   E    E  E   E   E  E  E    4x
|-------------------------|----------------------------------||
|-------17-17-17-17----17-|-(17)----------------------------o||
|-16----16-16-16-15----16-|-(16)------15-16-/21-\16-15-13----||
|-14----14-14-14-14----14-|-(14)-----------------------------||
|----14-------------14----|------14-------------------------o||
|-------------------------|----------------------------------||
|
|     PM             PM           PM-----|
|  E  E  E  E  E  E  E  E    +E   S S  E  E   E   E  E  E    4x
|-------------------------|----------------------------------||
|-------------------------|---------------------------------o||
|--------9--9--9--9-----9-|--(9)-----------------------------||
|--2-----9--9--9--8-----9-|--(9)-----------------------------||
|--------7--7--7--7-----7-|--(7)--------------7-------------o||
|-----0--------------0----|-------0-0--6--7-------7--6--4----||


                          E5                               N.C.
            T              T     T                 T                 T     T
                                       |--3--|                                      |--3--|
   T  T  T  T  T  T  T  T  T  T  T  T  S  S  S  T  T  T  T  T  T  T  T  T  T  T  T  S  S  S
|-12h14h16-19p16p14p12h14-19p16-19p16p14p12h14h16-19p16p14p12h14h16-19p16-19p16p14p12h14h16-|
|-------------------------------------------------------------------------------------------|
|-------------------------------------------------------------------------------------------|
|-------------------------------------------------------------------------------------------|
|-------------------------------------------------------------------------------------------|
|-------------------------------------------------------------------------------------------|
|
|  PM---------|                                                         PM---------|
|  E           E           E           E        E           E           E           E
|-------------------------------------------------------------------------------------------|
|-------------------------------------------------------------------------------------------|
|--------------------------9-----------9--------9-----------9-------------------------------|
|--------------------------9-----------9--------9-----------8-------------------------------|
|--------------------------7-----------7--------7-----------7-------------------------------|
|--0-----------0--------------------------------------------------------0-----------0-------|


  E5                               N.C.     (E)
   T                 T     T                 T                 T     T
                           |------6-------|  |--3--|              |-----------7-----------|
   T  T  T  T  T  T  T  T  S  S  S  S  S  S  S  S  S  T  T  T  T  S  S    S  S      S  S  S
|-19p16p14p12h14h16-19p16-19p16p14p12h14h16-19p16p14p12h14h16-19p16-19p==16p14p====12h14h16-|
|-------------------------------------------------------------------------------------------|
|-------------------------------------------------------------------------------------------|
|-------------------------------------------------------------------------------------------|
|-------------------------------------------------------------------------------------------|
|-------------------------------------------------------------------------------------------|
|
|                                            PM------|
|  E           E           E        E        E        E           S    S        E
|-------------------------------------------------------------------------------------------|
|-------------------------------------------------------------------------------------------|
|--9-----------9-----------9--------9------------------------------------------[1]----------|
|--9-----------9-----------9--------8----------------------------------2--------------------|
|--7-----------7-----------7--------7-----------------------------2-------------------------|
|--------------------------------------------0--------0-------------------------------------|


                         E5                              N.C.                 E5
   T                   T     T                   T              T     T
   |---------7---------|  |---------7---------|  |------6-------|  |---------7---------|
   S  S  S  S    S  S  S  S  S  S  S    S  S  S  S  S  S  S  S  S  S  S  S  S    S  S  S
|-21p16p14p12h==14h16-21p16-21p16p14p==12h14h16-21p16p14p12h16-21p16-21p16p14p==12p11h12-|
|----------------------------------------------------------------------------------------|
|----------------------------------------------------------------------------------------|
|----------------------------------------------------------------------------------------|
|----------------------------------------------------------------------------------------|
|----------------------------------------------------------------------------------------|
|
|             PM                                                   PM
|  E          E           E          E           E        E        E          E
|----------------------------------------------------------------------------------------|
|----------------------------------------------------------------------------------------|
|-------------------------9----------9-----------9--------9-------------------9----------|
|--2----------------------9----------9-----------9--------8-------------------9----------|
|-------------------------7----------7-----------7--------7-------------------7----------|
|-------------0----------------------------------------------------0---------------------|


               (E)
   T               T     T                 T              T
                            |------6-------|  |------6-------|  |---------7---------|
   T   T  T  T  T  T  T  T  S  S  S  S  S  S  S  S  S  S  S  S  S  S  S  S    S  S  S
|-18p=14p12p11h12-18p14-18p14p12p11h12h14-18p14p12p11h12-18p14-18p14p12p11s==12h14h16-|
|-------------------------------------------------------------------------------------|
|-------------------------------------------------------------------------------------|
|-------------------------------------------------------------------------------------|
|-------------------------------------------------------------------------------------|
|-------------------------------------------------------------------------------------|
|
|               PM------------------|
| +E            S     S     E        E        E        E        E          E
|-------------------------------------------------------------------------------------|
|-------------------------------------------------------------------------------------|
|-(9)---------------------------------------------------------------------------------|
|-(9)---------------------------------------------------------------------------------|
|-(7)-----------------------------------------7---------------------------------------|
|---------------0-----0-----6--------7-----------------7--------6----------4----------|


                           E5                            N.C.
     T                T     T                 T                T     T
     |---------7---------|  |------6-------|  |---------7---------|  |------6-------|
     S  S  S  S    S  S  S  S  S  S  S  S  S  S  S  S  S    S  S  S  S  S  S  S  S  S
||--19p16p14p12h==14-19p16-19p16p14p12h14h16-19p16p14p12h==14-19p16-19p16p14p12h14h16-|
||o-----------------------------------------------------------------------------------|
||------------------------------------------------------------------------------------|
||------------------------------------------------------------------------------------|
||o-----------------------------------------------------------------------------------|
||------------------------------------------------------------------------------------|
|
|    PM---------|                                                    PM------|
|    E          E           E        E        E          E           E        E
||------------------------------------------------------------------------------------|
||o-----------------------------------------------------------------------------------|
||--------------------------9--------9--------9----------9----------------------------|
||--------------------------9--------9--------9----------8----------------------------|
||o-------------------------7--------7--------7----------7----------------------------|
||---0----------0----------------------------------------------------0--------0-------|


  E5                              N.C.     (E)
   T                T     T                 T                T     T                       T
   |---------7---------|  |------6-------|  |---------7---------|  |-----------7-----------|
   S  S  S  S    S  S  S  S  S  S  S  S  S  S  S  S  S    S  S  S  S  S    S  S      S  S  S
|-19p16p14p12h==14-19p16-19p16p14p12h14h16-19p16p14p12h==14-19p16-19p16p==14p12h====14h16-21p==|
|----------------------------------------------------------------------------------------------|
|----------------------------------------------------------------------------------------------|
|----------------------------------------------------------------------------------------------|
|----------------------------------------------------------------------------------------------|
|----------------------------------------------------------------------------------------------|
|
|                                           PM---------|
|  E          E           E        E        E          E           S    S        E
|----------------------------------------------------------------------------------------------|
|----------------------------------------------------------------------------------------------|
|--9----------9-----------9--------9--------------------------------------------[1]------------|
|--9----------9-----------9--------8------------------------------------2----------------------|
|--7----------7-----------7--------7-------------------------------2---------------------------|
|-------------------------------------------0----------0---------------------------------------|


                    E5                            N.C.                   E5
               T     T                 T                T     T                   T
   |------6-------|  |------6-------|  |---------7---------|  |---------7---------|
   S  S  S  S  S  S  S  S  S  S  S  S  S  S  S  S    S  S  S  S  S  S  S    S  S  S
|-16p14p12h14-21p16-21p16p14p12h14h16-21p16p14p12h==14-21p16-21p16p14p12p==11h12-18-|
|-----------------------------------------------------------------------------------|
|-----------------------------------------------------------------------------------|
|-----------------------------------------------------------------------------------|
|-----------------------------------------------------------------------------------|
|-----------------------------------------------------------------------------------|
|
|           PM                                                PM
|  E        E        E        E        E          E           E          E
|-----------------------------------------------------------------------------------|
|-----------------------------------------------------------------------------------|
|--------------------9--------9--------9----------9----------------------9----------|
|--2-----------------9--------9--------9----------8----------------------9----------|
|--------------------7--------7--------7----------7----------------------7----------|
|-----------0-------------------------------------------------0---------------------|


            (E)
                T       T                   T           T
   |--------6--------|  |---------7---------|  |------6-------|  |------6-------|
   S   S  S  S  S    S  S  S  S  S    S  S  S  S  S  S  S  S  S  S  S  S  S  S  S
|-14p=12p11h12-18p==14-18p14p12p11h==12h14-18p14p12p11-18p14-18p14p12p11s12h14h16---||
|----------------------------------------------------------------------------------o||
|-----------------------------------------------------------------------------------||
|-----------------------------------------------------------------------------------||
|----------------------------------------------------------------------------------o||
|-----------------------------------------------------------------------------------||
|
|            PM--------------------|
| +E         S    S     E          E           E        E        E        E
|-----------------------------------------------------------------------------------||
|----------------------------------------------------------------------------------o||
|-(9)-------------------------------------------------------------------------------||
|-(9)-------------------------------------------------------------------------------||
|-(7)------------------------------------------7-----------------------------------o||
|------------0----0-----6----------7--------------------7--------6--------4---------||




--------------------------------------------------------------------------------


Duration Legend
---------------
W - whole; H - half; Q - quarter; E - 8th; S - 16th; T - 32nd; X - 64th; a - acciaccatura
+ - note tied to previous; . - note dotted; .. - note double dotted
Uncapitalized letters represent notes that are staccato (1/2 duration)
Irregular groupings are notated above the duration line
Duration letters will always appear directly above the note/fret number it represents the
duration for.  Duration letters with no fret number below them represent rests.  Multi-
bar rests are notated in the form Wxn, where n is the number of bars to rest for.  Low
melody durations appear below the staff

Tablature Legend
----------------
 h   - hammer-on
 p   - pull-off
 b   - bend
 pb  - pre-bend
 r   - bend release (if no number after the r, then release immediately)
 /\  - slide into or out of (from/to "nowhere")
 s   - legato slide
 S   - shift slide
 - natural harmonic
[n]  - artificial harmonic
n(n) - tapped harmonic
 ~   - vibrato
 tr  - trill
 T   - tap
 TP  - trem. picking
 PM  - palm muting
\n/  - tremolo bar dip; n = amount to dip
 \n  - tremolo bar down
 n/  - tremolo bar up
/n\  - tremolo bar inverted dip
 =   - hold bend; also acts as connecting device for hammers/pulls
 <> - volume swell (louder/softer)
 x   - on rhythm slash represents muted slash
 o   - on rhythm slash represents single note slash

Misc Legend
-----------
 |  - bar
||  - double bar
||o - repeat start
o|| - repeat end
*|  - double bar (ending)
 :  - bar (freetime)
 $  - Segno
 &  - Coda
Tempo markers -  = BPM(8/16=s8/s16), where s8 = swing 8ths, s16 = swing 16ths



            
            
Suggest correction
Creating personal tab
Creating personal tab
You can edit any tab online and save it as your Personal.

You can edit, replace or remove any tab part or add personal notes – all changes will be seen only by you.

Personal tabs can be accessed anytime from any device, even offline.
Learn more »
Give kudos to tab author, rate the tab!
1 2 3 4 5
comments
print report bad tab
guest
You may want to rate the tab now too:
select rating
Wanna post a correction for this tab? Suggest correction