Oops, an error
Loading. Please wait.

Damage Control tab

version 2
version 2

Whole song

4,188 views 3 this week
3 commentsread comments
1 2 3 4 5
x 4
add to favorites
×
Save as Personal and add changes to this tab that will be seen only by you. Learn more ›
×
You can save this tab as Personal to edit and correct it or add notes. All changes will be seen only by you. Learn more »
launch autoscroll
font size
0
reset
how to read this tab
guitar tuner
backing track
0:00
0:00
edit
Autoscroll
slow
fast
+/-
esc
set tempo
stop
Author
Difficulty
To Users: Whoever needs a tab( not Guitar Pro or Pwr tab) and u cant find it
in this format, send me a private message with the band and SONG u wish and i'll try to 
it!(by exporting guitar pro format to this format)


Damage Control

 John Petrucci

Tablature Legend
----------------
L - tied note
x - dead note
g - grace note
(n) - ghost note
> - accentuded note
NH - natural harmonic
AH - artificial harmonic
TH - tapped harmonic
SH - semi harmonic
PH - pitch harmonic
h - hammer on
p - pull off
b - bend
br - bendRelease
pb - preBend
pbr - preBendRelease
brb - bendReleaseBend
\n/ - tremolo bar dip
\n - tremolo bar dive
-/n - tremolo bar Release up
/n\ - tremolo bar inverted dip
/n - tremolo bar return
-\n - tremolo bar Release down
S - shift slide
s - legato slide
/ -  slide into from below or out of upwards
\ -  slide into from above or out of downwards
~ - vibrato
W - wide vibrato
tr - trill
TP - tremolo picking
T - tapping
S - slap
P - pop
< - fade in
^ - brush up
v - brush down

Duration Legend
---------------
W - whole
H - half
Q - quarter
E - 8th
S - 16th
T - 32nd
X - 64th
. - note dotted
|-n-|  - n-tuplets
Track 1

      E  E  Q    E  E  E  E     Q    E  E  E  E  Q
E||--------------------------|------------------------|
B||--------------------------|------------------------|
G||*-------------------------|------------------------|
D||*-------------------------|------------------------|
A||---4--4-------4--2--4--4--|-------4--2--4--9--7----|
E||---2--2-------2--0--2--2--|-------2--0--2--7--5----|


  E  E  Q    E  E  E  E     Q    E  E  E  E  E  E     E  E  Q    E  E  E  E
-------------------------|-------------------------|-------------------------|
-------------------------|-------------------------|-------------------------|
-------------------------|-------------------------|-------------------------|
-------------------------|-------------------------|-------------------------|
--4--4-------4--2--4--4--|-------4--2--4--5--4--2--|--4--4-------4--2--4--4--|
--2--2-------2--0--2--2--|-------2--0--2--3--2--0--|--2--2-------2--0--2--2--|


  Q    E  E  E  E  Q       E  E  Q    E  E  E  E     Q    E  E  E.  E.  E
------------------------|-------------------------|------------------------|
------------------------|-------------------------|------------------------|
------------------------|-------------------------|------------------------|
------------------------|-------------------------|------------------------|
-------4--2--4--9--7----|--4--4-------4--2--4--4--|-------4--2--2---2---3--|
-------2--0--2--7--5----|--2--2-------2--0--2--2--|-------2--0--0---0---1--|


  E  E  E  Q      E  E     E  E  H.              E  E  E  Q      E  E  E
------------------------|---------------------|---------------------------|
------------------------|--------5------------|---------------------------|
-----------3br----------|-----4---------------|-----------3br----------4--|
--------4---------4-----|---------------------|--------4---------4--5-----|
-----4---------------4--|--5------------------|-----4---------------------|
--2---------------------|---------------------|--2------------------------|


  E   E  E   E  H           E  E  E  Q      E  E  E     E  E  H.
---------9--12--9--------|---------------------------|---------------------|
-------------------------|---------------------------|-----7--5------------|
--7--12------------------|-----3-----6br----------4--|--6------------------|
-------------------------|--------4---------4--5-----|---------------------|
-------------------------|---------------------------|---------------------|
-------------------------|---------------------------|---------------------|


  E  S S E  E  E  E  E  E     E  E   E  E   E   E   Q
------------0--------------|------------9--11--13--15----|
---------------0-----------|-----------------------------|
------------------3--------|--4--7--12-------------------|
-----4-2-------------4--5--|-----------------------------|
---------4-----------------|-----------------------------|
---------------------------|-----------------------------|


   E   E   E   Q       E   E      E   E   H        E  E
------------------------------|--------------------------|
------------------------------|----------17--------L--L--|
--------------15br------------|------16------------------|
----------16----------16------|--------------------------|
------16------------------16--|--17----------------------|
--14--------------------------|--------------------------|


   E   E   E   Q       E   E   E      E   E   E   E   H
----------------------------------|----------21--24--21--------|
----------------------------------|----------------------------|
--------------15br------------16--|--19--24--------------------|
----------16----------16--17------|----------------------------|
------16--------------------------|----------------------------|
--14------------------------------|----------------------------|


  E   E   E   Q       E   E   E      E   E   H.
---------------------------------|------------------------|
---------------------------------|------19--17------------|
-----15------18br------------16--|--18--------------------|
---------16----------16--17------|------------------------|
---------------------------------|------------------------|
---------------------------------|------------------------|


  E   S  S  E   E   E   E   E   E      E   E   E   E   Q.      E
-----------------------------------|--------------21--24------12--|
-----------------------------------|------------------------------|
-------------------16--15----------|--16--19--24------------------|
-----16-14-----14----------16--17--|------------------------------|
-----------16----------------------|------------------------------|
-----------------------------------|------------------------------|


   E   E   E   E   E   E   E   E      E  E   E   E  E   S S  E   E
--14----------15--14----------14--|--12---------12--9--10-9---------|
------12--15--------------12------|---------10--------------12--10--|
----------------------11----------|------9--------------------------|
----------------------------------|---------------------------------|
----------------------------------|---------------------------------|
----------------------------------|---------------------------------|


   Q.     S  S Q    E   E      E   E   E   E   Q     E   E
---------------------------|------------------15----14--12--|
--12-----------------------|------12--15--------------------|
----------9-11-9----L--11--|--12----------12----------------|
---------------------------|--------------------------------|
---------------------------|--------------------------------|
---------------------------|--------------------------------|


   E   E   E   E   E   E   E   E
--14----------15--14----------14--|
------12--15--------------12------|
----------------------11----------|
----------------------------------|
----------------------------------|
----------------------------------|


                      |--3--|  |--| |--|
   E   E   E   E   S  S  S  S  S  T T  S  S  S  S     Q     E   E   E   E   E
--17------12--17--19-17-15-14---------------------|-------------------------|
------14----------------------17-15-L-14----------|---------------------17--|
-----------------------------------------16-14-16-|---L---L---L---L--16-----|
--------------------------------------------------|-------------------------|
--------------------------------------------------|-------------------------|
--------------------------------------------------|-------------------------|


   Q      E   E   E   Q    E        Q      E   S  S  S  S  Q    E
---------15--19------20----L---||---------15--22-19-------22----L--|
--19b------------17------------||--19b--------------20-------------|
------------------------------*||----------------------19----------|
------------------------------*||----------------------------------|
-------------------------------||----------------------------------|
-------------------------------||----------------------------------|


     E   E   E   Q       E   E      E   E   E   E   Q     E
|-------------------------------|----------------------------|
|-------------------------------|----------------------------|
|*--------------11br------------|----------12--15--14----12--|
|*----------12----------12------|------12--------------------|
|-------12------------------12--|--13------------------------|
|---10--------------------------|----------------------------|


   E   E   E   Q       E   E      E   E   E   H
--------------14br------------|------------------------|
----------15----------15------|------15--18--17--------|
------14------------------14--|--15--------------------|
--16--------------------------|------------------------|
------------------------------|------------------------|
------------------------------|------------------------|


   E   E   E   Q       E   E      E   E   E   E   Q     E
------------------------------|----------------------------|
------------------------------|----------------------------|
--------------11br------------|----------12--15--14----12--|
----------12----------12------|------12--------------------|
------12------------------12--|--13------------------------|
--10--------------------------|----------------------------|


   E  E  E   E  E  E     E  E  E  E  E  E     E  E  E  E  E  E
----------------------|--------------------|--------------------|
----------------------|--------------------|--------------------|
--11--7-----11--9--6--|--7--4-----7--6-----|--------------------|
---------7------------|--------4--------7--|--9--5-----9--7--4--|
----------------------|--------------------|--------5-----------|
----------------------|--------------------|--------------------|


  E  E  E  E  E  E     E  E  E  E  E     E  E  E  E  E       H.
--------------------|-----------------|------------------||---------------|
--------------------|-----------------|------------------||---------------|
--------------------|-----7--4--6--7--|-----9--6--7--9--*||---------------|
-----4--5-----4--5--|--5--------------|--7--------------*||--7------------|
--------------------|-----------------|------------------||--7------------|
--0--------2--------|-----------------|------------------||--5------------|


  Q.     Q.        H.              Q.     Q    S S    H.
----------------|---------------|------------------|---------------|
----------------|---------------|--8------7----8-7-|--5------------|
----------------|---------------|------------------|---------------|
--4------5------|--5------------|------------------|---------------|
----------------|--5------------|------------------|---------------|
----------------|--3------------|------------------|---------------|


  Q    Q     Q        H.                Q      E  Q      E     E  S H        S
------------------|-----------------|-----------------------|---------------|
------------10----|--10b------------|--10br----7------------|---------------|
--6----7----------|-----------------|-------------9br----7--|--9--7-9-------|
------------------|-----------------|-----------------------|---------------|
------------------|-----------------|-----------------------|---------------|
------------------|-----------------|-----------------------|---------------|


  H        E  E     Q.     Q    E     Q.     Q.        Q.     Q    E
--0--------------|-----------------|----------------|-----------------|
--0--------------|-----------------|----------------|-----------------|
--0--------------|---------7-------|--6------7------|---------7-------|
--2-----------4--|--5-----------5--|----------------|--7-----------7--|
-----------7-----|-----------------|----------------|-----------------|
-----------------|-----------------|----------------|-----------------|


  S  S S S  S S S  S S  S  S S     H        H
-----------------------------9-|--10-----------------|
---------------------8-10-12---|---------------------|
-------7-9----7-9-11-----------|------------7--------|
--9-11-----11------------------|------------7--------|
-------------------------------|------------5--------|
-------------------------------|------------5--------|


  Q     E   E   Q.        E      Q.      E   E   E   Q       W
-----------------------------|----------------------------|-----------------|
-----------------------------|----------------------------|-----------------|
-------12--14--14br------12--|--11----------11--12--11----|--5--------------|
-----------------------------|----------12----------------|--5--------------|
-----------------------------|----------------------------|--3--------------|
-----------------------------|----------------------------|--3--------------|


  W                   Q     E   E   Q.        E      Q.      E   E   E   Q
-------------------|-------15--17--17br------15--|--14----------14--15--14--|
-------------------|-----------------------------|----------15--------------|
--7----------------|-----------------------------|--------------------------|
--7----------------|-----------------------------|--------------------------|
--5----------------|-----------------------------|--------------------------|
--5----------------|-----------------------------|--------------------------|


   E   Q.      E   Q.        W                   Q     E   E   Q.        E
--------------------------|-------------------|-----------------------------|
--------------------------|-------------------|-----------------------------|
--17--15------------------|--7----------------|-------12--14--14br------12--|
--17--15------17--15------|--7----------------|-----------------------------|
--------------17--15------|--5----------------|-----------------------------|
--------------------------|--5----------------|-----------------------------|


   Q.      E   E   E   Q       W                   W
----------------------------|-------------------|-------------------|
----------------------------|-------------------|-------------------|
--11----------11--12--11----|--5----------------|--7----------------|
----------12----------------|--5----------------|--7----------------|
----------------------------|--3----------------|--5----------------|
----------------------------|--3----------------|--5----------------|


  Q     E   E   Q.        E      Q.      E   E   E   Q
-------15--17--17br------15--|--14----------14--15--14----|
-----------------------------|----------15----------------|
-----------------------------|----------------------------|
-----------------------------|----------------------------|
-----------------------------|----------------------------|
-----------------------------|----------------------------|


  E  Q.     E  Q.        E.  S S S Q     E  S S E
----------------------|----------------------------|
----------------------|----------------------------|
--5--3----------------|-------------------------2--|
--5--3------5--3------|--2---2-2-2-------2--2-2----|
------------5--3------|--0---0-0-0-3b----0--0-0----|
----------------------|----------------------------|


              |--3--| 3       3    3
  E.  S E  E  S  S  S S  S E  X E  X    E.  S S S Q     E  S S E
-------------------------------------|----------------------------|
---------------------------0--L-L--L-|----------------------------|
--------------5p-4p-0------0--L-L--L-|-------------------------2--|
--2---2-2--2----------4p-0-----------|--2---2-2-2-------2--2-2----|
--0---0-0--0-------------------------|--0---0-0-0-3b----0--0-0----|
-------------------------------------|----------------------------|


  E.  S E  E  Q    Q       E.  S S S Q     E  S S E
------------------------|----------------------------|
--------------8----7----|----------------------------|
--------------7----7----|-------------------------2--|
--2---2-2--2--7----7----|--2---2-2-2-------2--2-2----|
--0---0-0--0------------|--0---0-0-0-3b----0--0-0----|
------------------------|----------------------------|


              |--3--| 3       3    3
  E.  S E  E  S  S  S S  S E  X E  X    E.  S S S Q     E  S S E
-------------------------------------|----------------------------|
---------------------------0--L-L--L-|----------------------------|
--------------5p-4p-0------0--L-L--L-|-------------------------2--|
--2---2-2--2----------4p-0-----------|--2---2-2-2-------2--2-2----|
--0---0-0--0-------------------------|--0---0-0-0-3b----0--0-0----|
-------------------------------------|----------------------------|


                                            3       3    3 3
  E.  S E  E  Q    Q       S S S E.  E  S S E  S. S T S. X X
------------------------|------------------------------------|
--------------8----7----|------------------------------------|
--------------7----7----|------------------------------------|
--2---2-2--2--7----7----|--------4------2-2-2-------2-L--L-L-|
--0---0-0--0------------|----------------------2h-4----------|
------------------------|--2-2-2-----2-----------------------|


                                              3       3    3 3
  S S S E.  S S Q    Q       S S S E.  E  S S E  S. S T S. X X
--------------------------|------------------------------------|
--------------------------|------------------------------------|
----------------2----4----|------------------------------------|
--------4-------2----4----|--------4------2-2-2-------2-L--L-L-|
----------------0----2----|----------------------2h-4----------|
--2-2-2-----2-2-----------|--2-2-2-----2-----------------------|


                                                    3       3    3 3
  S S S E.  S S S S S S S S S S    S S S E.  E  S S E  S. S T S. X X
--------------------------------|------------------------------------|
--------------------------------|------------------------------------|
--------------------------------|------------------------------------|
--------4---4-4-4-2-------------|--------4------2-2-2-------2-L--L-L-|
--------------------4-3-2-0-----|----------------------2h-4----------|
--2-2-2---------------------2-0-|--2-2-2-----2-----------------------|


                                              3       3    3 3
  S S S E.  S S Q    Q       S S S E.  E  S S E  S. S T S. X X
--------------------------|------------------------------------|
--------------------------|------------------------------------|
----------------2----4----|------------------------------------|
--------4-------2----4----|--------4------2-2-2-------2-L--L-L-|
----------------0----2----|----------------------2h-4----------|
--2-2-2-----2-2-----------|--2-2-2-----2-----------------------|


                |--3--|
  S S S E.  S S S  S  S S S S S S S     S  S  S  E.   Q    S S S S  E
------------------------------------|----------------------------------|
------------------------------------|-----------11---------------------|
----------------2h-3p-2-------------|-----------11---------------------|
--------4---4-4---------4-2---------|-----------11---------------------|
----------------------------4-3-2-0-|----------------------------------|
--2-2-2-----------------------------|--11-11-11------11----9-9-9-9-10--|


   S  S  S  E.   Q    S S S S  E      S  S  S  E.   Q    S S S S  E
----------------------------------|----------------------------------|
-----------11---------------------|-----------11---------------------|
-----------11---------------------|-----------11---------------------|
-----------11---------------------|-----------11---------------------|
----------------------------------|----------------------------------|
--11-11-11------11----9-9-9-9-10--|--11-11-11------11----9-9-9-9-10--|


   S  S  S  E.   Q.      Q        S  S  S  S  E   Q      S  S  S  S  S  S
------------------------------|--14-14-14-14-14---------------------------|
-----------11-----------13----|--13-13-13-13-13--11b----------------------|
-----------11-----------13----|------------------11b----------------------|
-----------11-----------13----|-------------------------13-11-------------|
------------------------------|-------------------------------13-12-11----|
--11-11-11------11------------|----------------------------------------14-|


   S  S  S  S  E   Q      E   E    E
--14-14-14-14-14------------------11--|
--13-13-13-13-13--11b----11-----------|
------------------11b--------13b------|
--------------------------------------|
--------------------------------------|
--------------------------------------|


   E    S  S  S  S  S  S  S  S  S  S  S  S  S  S     S  S  S  H        Q    S
-------11----------------------------------------|--------------------------|
--14b-----14-11----11----------------------------|--------------------------|
----------------14----14-13----13-12-11----------|-----------11-------------|
----------------------------13----------13-11----|--11-12-13----------------|
----------------------------------------------13-|--------------------------|
-------------------------------------------------|--------------------------|


    E.  E.  Q    S S S S S S    E  S E.  E.  S S S S S S S
|----------------------------|-----------------------------|
|---4---4---4----------------|-------4---------------------|
|*--3---3---3----------------|-------3---------------------|
|*--1---1---1----------------|-----------------------------|
|---3---3---3----------1-2-3-|--3--3-----3---------1-2-3---|
|----------------1-2-3-------|---------------1-2-3---------|


                                                           solo (32 bars)
  E  S E.  E.  S S S S S S S    E  S Q    S Q    Q         W
-----------------------------|-------------------------||-------------------|
-------4---------------------|-------4----L-6----6-----||-------------------|
-------3---------------------|-------3----L-5----5----*||-------------------|
-----------------------------|--------------3----3----*||-------------------|
--3--3-----3---------1-2-3---|--3--3--------5----5-----||-------------------|
---------------1-2-3---------|-------------------------||-------------------|


  W                   E.  S S S Q     E  S S E
-------------------|----------------------------|
-------------------|----------------------------|
-------------------|-------------------------2--|
-------------------|--2---2-2-2-------2--2-2----|
-------------------|--0---0-0-0-3b----0--0-0----|
-------------------|----------------------------|


              |--3--| 3       3    3
  E.  S E  E  S  S  S S  S E  X E  X    E.  S S S Q     E  S S E
-------------------------------------|----------------------------|
---------------------------0--L-L--L-|----------------------------|
--------------5p-4p-0------0--L-L--L-|-------------------------2--|
--2---2-2--2----------4p-0-----------|--2---2-2-2-------2--2-2----|
--0---0-0--0-------------------------|--0---0-0-0-3b----0--0-0----|
-------------------------------------|----------------------------|


  E.  S E  E  Q    Q       E.  S S S Q     E  S S E
------------------------|----------------------------|
--------------8----7----|----------------------------|
--------------7----7----|-------------------------2--|
--2---2-2--2--7----7----|--2---2-2-2-------2--2-2----|
--0---0-0--0------------|--0---0-0-0-3b----0--0-0----|
------------------------|----------------------------|


              |--3--| 3       3    3
  E.  S E  E  S  S  S S  S E  X E  X    E.  S S S Q     E  S S E
-------------------------------------|----------------------------|
---------------------------0--L-L--L-|----------------------------|
--------------5p-4p-0------0--L-L--L-|-------------------------2--|
--2---2-2--2----------4p-0-----------|--2---2-2-2-------2--2-2----|
--0---0-0--0-------------------------|--0---0-0-0-3b----0--0-0----|
-------------------------------------|----------------------------|


  E.  S E  E  Q    Q       S S S S S S S S S S S S S S S S
------------------------|----------------------------------|
--------------8----7----|----------------------------------|
--------------7----7----|----------------------------------|
--2---2-2--2--7----7----|----------------------------------|
--0---0-0--0------------|--------2---------------2---------|
------------------------|--2-3-5---5-3-2-3-2-3-5---5-3-2-3-|


  E  S E.  S S S E  S Q       S S S S S S S S S S S S S S S S
---------------------------|----------------------------------|
---------------------------|----------------------------------|
---------------------------|----------------------------------|
---------------------------|----------------------------------|
---------------------------|--------2---------------2---------|
--0--0-0---0-0-0-0--0-0----|--2-3-5---5-3-2-3-2-3-5---5-3-2-3-|


  E  S E.  S S S E  S Q       S S S S S S S S S S S S S S S S
---------------------------|----------------------------------|
---------------------------|----------------------------------|
---------------------------|----------------------------------|
---------------------------|----------------------------------|
--3--3-3---3-3-3-3--3-3----|--------2---------------2---------|
---------------------------|--2-3-5---5-3-2-3-2-3-5---5-3-2-3-|


  E  S E.  S S S E  S Q       S S S S S S S S S S S S S S S S
---------------------------|----------------------------------|
---------------------------|----------------------------------|
---------------------------|----------------------------------|
---------------------------|----------------------------------|
---------------------------|--------2---------------2---------|
--0--0-0---0-0-0-0--0-0----|--2-3-5---5-3-2-3-2-3-5---5-3-2-3-|


  E  S E.  S S S E  S Q       S S S S S S S S S S S  S Q
---------------------------|--------------------------------|
---------------------------|--------------------------------|
---------------------------|--------------------4------9----|
---------------------------|------5-----4-----5-------------|
--0--0-0---0-0-0-0--0-0----|--2-3---2-3---5-7-----7-10------|
---------------------------|--------------------------------|


  S  S S  S S S   S  S S   S  E   Q       S S S S S E  S S S S S   E  E
---------------------------------------|---------------------------------|
---------------------------------12----|---------------------------------|
--------------------11-------11--------|---------------------------------|
-------7-10---9h-12----9h-12-----------|------5-----4------------<>2--L--|
--7h-9------9--------------------------|--2-3---2-3----0-2-0-5-0---------|
---------------------------------------|---------------------------------|


  S  S S  S S S   S  S S   S  E   Q       S S S S S S S S S S S  S Q
---------------------------------------|--------------------------------|
---------------------------------12----|--------------------------------|
--------------------11-------11--------|--------------------4------9----|
-------7-10---9h-12----9h-12-----------|------5-----4-----5-------------|
--7h-9------9--------------------------|--2-3---2-3---5-7-----7-10------|
---------------------------------------|--------------------------------|


  S  S S  S S S   S  S S   S  E   Q
---------------------------------------|
---------------------------------12----|
--------------------11-------11--------|
-------7-10---9h-12----9h-12-----------|
--7h-9------9--------------------------|
---------------------------------------|


  S S S  S S S S  S  S S  S S  S  S  S  S
------------------------------------------|
------------------------------------------|
------------------------------------------|
--------------------10------9-------10-14-|
------7-10---7-9-12----9-12---10-12-------|
--7-8------8------------------------------|


   S  S  S  S  S  S   S  S  S   S  S  S  S  S   S  S
-----------------------------------------------------|
--------------------------------------------------13-|
--------------14--------12--------12-16----12h-14----|
-----10-12-16----12h-14----12h-14-------14-----------|
--12-------------------------------------------------|
-----------------------------------------------------|


   S  S   S  S  S   S  S  S  S   S  S  S  S   S  S  S     W
--12------------------15-19--------15-19--------19-22-|--22b----------------|
-----12h-13-17-15h-17-------17h-19-------19h-20-------|---------------------|
------------------------------------------------------|---------------------|
------------------------------------------------------|---------------------|
------------------------------------------------------|---------------------|
------------------------------------------------------|---------------------|


   S   S  S  S  S  S  S  S  S  S  S  S  S  S  S  S
--22p-19-------------16-19-16-13-------------10-13-|
---------20-------17-------------14-------11-------|
------------19-16-------------------13-10----------|
---------------------------------------------------|
---------------------------------------------------|
---------------------------------------------------|


   S  S  S  S  S  S  S  S  S  S  S  S  S S  S S
--16-13-------------------------10-13-12-9------|
--------14-------------------11------------10---|
-----------13-------------10------------------9-|
--------------15-------12-----------------------|
-----------------16-13--------------------------|
------------------------------------------------|


   S S  S  S S  S S  S  S  S  S S  S S  S  S
---------------------------------------------|
---------------------------------------------|
------------------8-10p-8--------------------|
-----9-12----9-12---------12-10-9----9-10-12-|
--10------10----------------------10---------|
---------------------------------------------|


   S S  S  S S  S S  S  S  S  S S  Q
----------------------------------------|
----------------------------------------|
------------------8-10p-8---------------|
-----9-12----9-12---------12-10-9-------|
--10------10----------------------10----|
----------------------------------------|


   S S  S  S S  S S  S  S  S  S S  S S  S  S
---------------------------------------------|
---------------------------------------------|
------------------8-10p-8--------------------|
-----9-12----9-12---------12-10-9----9-10-12-|
--10------10----------------------10---------|
---------------------------------------------|


   S S  S  S S  S S  S  S  S  S S  Q
----------------------------------------|
----------------------------------------|
------------------8-12p-8---------------|
-----9-12----9-12---------12-10-9-------|
--10------10----------------------10----|
----------------------------------------|


   S  S  S  S  S  S  S  S   S  S  S  S  S  S  S  S
---------------------------------------------------|
---------------------------------------------------|
--------------------11-13p-11----------------------|
-----12-15----12-15-----------15-13-12----12-13-15-|
--13-------13--------------------------13----------|
---------------------------------------------------|


   S  S  S  S  S  S  S  S   S  S  S  S  Q
---------------------------------------------|
---------------------------------------------|
--------------------11-13p-11----------------|
-----12-15----12-15-----------15-13-12-------|
--13-------13--------------------------13----|
---------------------------------------------|


   S  S  S  S  S  S  S  S   S  S  S  S  S  S  S  S
---------------------------------------------------|
---------------------------------------------------|
--------------------11-13p-11----------------------|
-----12-15----12-15-----------15-13-12----12-13-15-|
--13-------13--------------------------13----------|
---------------------------------------------------|


   S  S  S  S  S  S  S  S   S  S  S  S  Q
---------------------------------------------|
---------------------------------------------|
--------------------11-15p-11----------------|
-----12-15----12-15-----------15-13-12-------|
--13-------13--------------------------13----|
---------------------------------------------|


   S S  S  S S  S S  S  S  S  S S  S S  S  S
---------------------------------------------|
---------------------------------------------|
------------------8-10p-8--------------------|
-----9-12----9-12---------12-10-9----9-10-12-|
--10------10----------------------10---------|
---------------------------------------------|


   S S  S  S S  S S  S  S  S  S S  Q
----------------------------------------|
----------------------------------------|
------------------8-10p-8---------------|
-----9-12----9-12---------12-10-9-------|
--10------10----------------------10----|
----------------------------------------|


   S S  S  S S  S S  S  S  S  S S  S S  S  S
---------------------------------------------|
---------------------------------------------|
------------------8-10p-8--------------------|
-----9-12----9-12---------12-10-9----9-10-12-|
--10------10----------------------10---------|
---------------------------------------------|


   S S  S  S S  S S  S  S  S  S S  Q
----------------------------------------|
----------------------------------------|
------------------8-12p-8---------------|
-----9-12----9-12---------12-10-9-------|
--10------10----------------------10----|
----------------------------------------|


   S  S  S  S  S  S  S  S   S  S  S  S  S  S  S  S
---------------------------------------------------|
---------------------------------------------------|
--------------------11-13p-11----------------------|
-----12-15----12-15-----------15-13-12----12-13-15-|
--13-------13--------------------------13----------|
---------------------------------------------------|


   S  S  S  S  S  S  S  S   S  S  S  S  Q
---------------------------------------------|
---------------------------------------------|
--------------------11-13p-11----------------|
-----12-15----12-15-----------15-13-12-------|
--13-------13--------------------------13----|
---------------------------------------------|


   S  S  S  S  S  S  S  S   S  S  S  S  S  S  S  S
---------------------------------------------------|
---------------------------------------------------|
--------------------11-13p-11----------------------|
-----12-15----12-15-----------15-13-12----12-13-15-|
--13-------13--------------------------13----------|
---------------------------------------------------|


   S  S  S  S  S  S  S  S  S  S  S  S  S  S  S  S
--------------------------------------------------|
--------------------------------------------------|
--------------------11-15-13-11----------------11-|
-----12-15----12-15-------------15-13-12-13-15----|
--13-------13-------------------------------------|
--------------------------------------------------|


   S  S  S  S  S  S  S  S  S   S   S  S  S  S  S  S
----------------------------------------------------|
--------------------------14h-15p-14-------18-16-15-|
--15-13-11-16-15-13-15-16------------16-15----------|
----------------------------------------------------|
----------------------------------------------------|
----------------------------------------------------|


   S   S  S  S  S  S  S  S  S  S  S  S  S  S  S  S
--18p-14-------19-16-------------------------------|
---------16----------17-12----------------12-------|
------------15-------------13----------------13----|
------------------------------14----------------14-|
---------------------------------14-11-------------|
---------------------------------------12----------|


   S   S  S   S  S  S   S  S  S   S  S   S  S  S  S  S
----------------------------------------------12p-9----|
--15p-11------------------11-15p-11-14p-11----------10-|
-------------------------------------------11----------|
---------15p-12----12h-15------------------------------|
----------------13-------------------------------------|
-------------------------------------------------------|


   S  S  S   S  S  S   S S  S  S  S  S  S  S   S  S
--13p-9------------------9-13p-9-12p-9--------------|
---------------------------------------10-15p-12----|
--------13p-10----10h-13-------------------------13-|
---------------11-----------------------------------|
----------------------------------------------------|
----------------------------------------------------|


   E   E   E   E   E  E   E  E     E   E  E  E  E  E  E  E
--14------10--14--12--9--10-----|--7--10--9--5--7-----3--7--|
------10---------------------7--|------------------3--------|
--------------------------------|---------------------------|
--------------------------------|---------------------------|
--------------------------------|---------------------------|
--------------------------------|---------------------------|


  E  E  E  E  E  E   E  E     E  E  E  E  E  E  E  E
--5--2--3--------3p--2-----|--0--------0--------0-----|
--------------5---------3--|--------3-----3-----------|
-----------4---------------|-----2-----------2-----2--|
---------------------------|--------------------------|
---------------------------|--------------------------|
---------------------------|--------------------------|


  E  E  E  E  E  E  E  E     E  E  E  E  E  E  E  E
-----0--------0--------0--|--------0--------0--------|
--3-----3-----------2-----|--2-----------2-----2-----|
-----------2-----2--------|-----2-----2-----------2--|
--------------------------|--------------------------|
--------------------------|--------------------------|
--------------------------|--------------------------|


     E   E   E   Q       E   E      E   E   E   E   Q     E
|-------------------------------|----------------------------|
|-------------------------------|----------------------------|
|*--------------11br------------|----------12--15--14----12--|
|*----------12----------12------|------12--------------------|
|-------12------------------12--|--13------------------------|
|---10--------------------------|----------------------------|


                                              W
   E   E   E   Q       E   E      E   E   E   H
--------------14br------------|------------------------|
----------15----------15------|------15--18--17--------|
------14------------------14--|--15--------------------|
--16--------------------------|------------------------|
------------------------------|------------------------|
------------------------------|------------------------|


   E   E   E   Q       E   E      E   E   E   E   Q     E
------------------------------|----------------------------|
------------------------------|----------------------------|
--------------11br------------|----------12--15--14----12--|
----------12----------12------|------12--------------------|
------12------------------12--|--13------------------------|
--10--------------------------|----------------------------|


   E  E  E   E  E  E     E  E  E  E  E  E     E  E  E  E  E  E
----------------------|--------------------|--------------------|
----------------------|--------------------|--------------------|
--11--7-----11--9--6--|--7--4-----7--6-----|--------------------|
---------7------------|--------4--------7--|--9--5-----9--7--4--|
----------------------|--------------------|--------5-----------|
----------------------|--------------------|--------------------|


  E  E  E  E  E  E     E  E  E  E  E     E  E  E  E  E       H.
--------------------|-----------------|------------------||---------------|
--------------------|-----------------|------------------||---------------|
--------------------|-----7--4--6--7--|-----9--6--7--9--*||---------------|
-----4--5-----4--5--|--5--------------|--7--------------*||--7------------|
--------------------|-----------------|------------------||--7------------|
--0--------2--------|-----------------|------------------||--5------------|


  Q.     Q.        H.              Q.     Q    S S    H.
----------------|---------------|------------------|---------------|
----------------|---------------|--8------7----8-7-|--5------------|
----------------|---------------|------------------|---------------|
--4------5------|--5------------|------------------|---------------|
----------------|--5------------|------------------|---------------|
----------------|--3------------|------------------|---------------|


  Q    Q     Q        H.                Q      E  Q      E     E  S H        S
------------------|-----------------|-----------------------|---------------|
------------10----|--10b------------|--10br----7------------|---------------|
--6----7----------|-----------------|-------------9br----7--|--9--7-9-------|
------------------|-----------------|-----------------------|---------------|
------------------|-----------------|-----------------------|---------------|
------------------|-----------------|-----------------------|---------------|


  H        E   E   E     Q     Q     E   E  E     E   Q     S  S  E  E  E
--0-------------------|-----------------15--L--|-----14----15-14-12--L-----|
--0-------------------|-------15---------------|---------------------------|
--0-----------11--12--|--L----------12---------|---------------------------|
--2-------------------|------------------------|---------------------------|
----------------------|------------------------|---------------------------|
----------------------|------------------------|---------------------------|


  E   Q     Q     Q        Q     H         E     E   Q       E   Q       E
-----------------------|--17----17b--------L--|-----17br----14--------------|
-----15----14----15----|----------------------|-----------------17br----15--|
-----------------------|----------------------|-----------------------------|
-----------------------|----------------------|-----------------------------|
-----------------------|----------------------|-----------------------------|
-----------------------|----------------------|-----------------------------|


   S  S  S  S  S  S  S  S  S  S  S  S  S   S  S S    H        Q.      E
--19-16-------------------------------------------|----------------------|
--------17-------17-------------------------------|----------------------|
-----------16-14----14-13-------------------------|------------------11--|
--------------------------14-------14-------------|----------------------|
-----------------------------14-12----12p-11------|----------------------|
---------------------------------------------12-L-|--L-------------------|


   Q.      Q     E   Q       E   Q.      Q.      E     E   E   Q.      Q.
--------------------------|-------------------------|-----------------------|
----------15--------14----|--L--15--------------15--|--L------14------15----|
--12------------12--------|-------------14----------|-----14----------------|
--------------------------|-------------------------|-----------------------|
--------------------------|-------------------------|-----------------------|
--------------------------|-------------------------|-----------------------|


  H        H           Q     E   E   Q.        E      Q.      E   E   E   Q
--------------------|-----------------------------|-------------------------|
--------------------|-----------------------------|-------------------------|
-----------7--------|-------12--14--14br------12--|--11----------11--12--11-|
--7--------7--------|-----------------------------|----------12-------------|
--5--------5--------|-----------------------------|-------------------------|
--5--------5--------|-----------------------------|-------------------------|


  W                   W                   Q     E   E   Q.        E
-------------------|-------------------|-------15--17--17br------15--|
-------------------|-------------------|-----------------------------|
--5----------------|--7----------------|-----------------------------|
--5----------------|--7----------------|-----------------------------|
--3----------------|--5----------------|-----------------------------|
--3----------------|--5----------------|-----------------------------|


   Q.      E   E   E   Q        E   Q.      E   Q.
--14----------14--15--14----|--------------------------|
----------15----------------|--------------------------|
----------------------------|--17--15------------------|
----------------------------|--17--15------17--15------|
----------------------------|--------------17--15------|
----------------------------|--------------------------|


   E   E   E   S  S  S  S  S  S  S  S  S  S
--------------------------------------------|
-----------------13-15-16-15-13-15-16-15-13-|
------12--14--15----------------------------|
--16----------------------------------------|
--------------------------------------------|
--------------------------------------------|


   T  T  T  T  T  T  T  T  T  T  T  T  T  T  T  T  T  T  T  T  T  T  T  T  T  T
-----------------------------------------14-15-17-15-14-15-17-15-14-15-17-15-|
15-16-15-13-15-16-15-13-15-16-15-13-15-16------------------------------------|
-----------------------------------------------------------------------------|
-----------------------------------------------------------------------------|
-----------------------------------------------------------------------------|
-----------------------------------------------------------------------------|


   T  T  T  T  T  T  T  T  T  T  T  T  T  T  T  T  T  T  T  T  T  T  Q    S
----------------------------------------------------------------------------|
--15-13---------------------------------------------------------------------|
--------15-14-12-15-14-12-15-14-12-15-14-12-14-15-14-12-14-15-14-12-11----L-|
----------------------------------------------------------------------------|
----------------------------------------------------------------------------|
----------------------------------------------------------------------------|


   E   Q.      E   Q.        W
--------------------------|-------------------||
--------------------------|-------------------||
--17--15------------------|--7----------------||
--17--15------17--15------|--7----------------||
--------------17--15------|--5----------------||
--------------------------|--5----------------||

            
            
Suggest correction
Creating personal tab
Creating personal tab
You can edit any tab online and save it as your Personal.

You can edit, replace or remove any tab part or add personal notes – all changes will be seen only by you.

Personal tabs can be accessed anytime from any device, even offline.
Learn more »
comments
print report bad tab
3 comments total.
0 reply
jose763 659 May 10, 2007 07:14 AM

wat version is this??

0 reply
ivan_2894 2,621 May 10, 2007 12:10 PM

it is the suspended animation version

0 reply
dennevhyn_31 10 Mar 26, 2008 12:57 PM

is the intro correct? is there no palm mute on the intro?

guest
You may want to rate the tab now too:
select rating
Wanna post a correction for this tab? Suggest correction