Oops, an error
Loading. Please wait.

Glasgow Kiss bass

version 1
version 1

Whole song

21,824 views 18 this week
1 commentread comment
1 2 3 4 5
x 6
add to favorites
×
Save as Personal and add changes to this tab that will be seen only by you. Learn more ›
×
You can save this tab as Personal to edit and correct it or add notes. All changes will be seen only by you. Learn more »
launch autoscroll
font size
0
reset
guitar tuner
backing track
0:00
0:00
edit
Autoscroll
slow
fast
+/-
esc
set tempo
stop
Author
Difficulty
-------------------------------------------------------------------------------
			     Glasgow kiss – John Petrucci
-------------------------------------------------------------------------------

Tabbed By: Sébastien
e-mail: sebastien_baumann@hotmail.com

Tuning: standard

This tab is made for all the bass players like me who have to play this song with their
but found out that there were no tabs available for it online. So it is not 100% correct
it does sound pretty good. There are however some parts which I just had to compose myself.
For the exact rhythm I am sure you can work it out by yourself.

(time signature 12/8)
G|-------------------------|------------------------|-------------------------|
D|-------------------------|------------------------|-------------------------|
A|-7/----------------------|------------------------|-7/----------------------|
D|-------------------------|------------------------|-------------------------|


-------------------------|-------------------------|-------------------------|
-------------------------|-------------------------|-------------------------|
-------------9---7-------|-------------------------|-------------------------|
---------------------10--|-0-----------------------|---------------------0-0-|


-------------------------|-------------------------|-------------------------|
-------------------------|-------------------------|-------------------------|
-7-----------------------|-5-5-5-5-5-5-------------|----------------7----7---|
-------------------------|-------------5-5-5-5-5-5-|-0---0-------------------|


-----------------------9-|-------------------------|-------------------------|
---------------------7---|-------------------------|-------------------------|
--------------5----5-----|----------------7----7---|-------------5-5-5-5-5-5-|
-0---0-------------------|-0---0-------------------|-3---3-------------------|


-------------------------|-----------------------9-|-------------------------|
-------------------------|---------------------7---|-------------------------|
----------------7----7---|--------------5----5-----|----------------7----7---|
-0---0-------------------|-0---0-------------------|-0---0-------------------|


-------------------------|
-------------------------|
-5-5-5-5-5-5-------------|
-------------5-5-5-5-5-5-|

Verse

-------------------------|-------------------------|-------------------------|
-------------------------|-------------------------|-----------------6-7-6---|
-7-7-7-7-7-7-7---4-5-4---|-7-7-7-7-7-7-7-4-5-7-5---|---------------9-------9-|
---------------7-------7-|-----------------------5-|-7-7-7-7-7-7-7-----------|


-------------------------|-------------------------|-------------------------|
-9-9-9-9-9-9-9-6-7-9-7-6-|-------------------------|-------------------2-----|
-------------------------|-5-5-5-5-5-5-5---2-4-2---|-5-5-5-5-5-5-5-4-5---5-4-|
-------------------------|---------------5-------5-|-------------------------|


-------------------------|-------------------------|-------------------------|
-------------------------|---------4-6-7-6-4-----4-|-------------------------|
-----7-------5---4-------|-----7-------------5-7---|-7-7-7-7-7-7-7---4-5-4---|
-0-------0-0---5---5-7-5-|-0-----------------------|---------------7-------7-|


-------------------------|-------------------------|-------------------------|
-------------------------|-----------------6-7-6---|-9-9-9-9-9-9-9-6-7-9-7-6-|
-7-7-7-7-7-7-7-4-5-7-5---|---------------9-------9-|-------------------------|
-----------------------5-|-7-7-7-7-7-7-7-----------|-------------------------|


-------------------------|-------------------------|-------------------------|
-------------------------|-------------------------|-----------------2-4-2---|
-------------------2-----|---------------2-4-5-4---|---------------5-------5-|
-2-2-2-2-2-2-2-4-5---5-4-|-2-2-2-2-2-2-2---------2-|-3-3-3-3-3-3-3-----------|


-------------------------|-------------------------|-------------------------|
-5-5-5-5-5-5-5-2-4-5-4-2-|-------------------5---7-|-------------------------|
-------------------------|-------------------------|-------------4-4-4-4-4-4-|
-------------------------|-7-7-7-7-7-7/-\7-7---7---|-7-7-7-7-7-7-------------|


-------------------6---7-|-------------------------|-------------------------|
-------------------------|-------------------------|-------------------------|
-5-5-5-5-5-5/-\5-5---5---|-5-5-5-5-5-5-7-7-7-7-7-7-|-9-9-9-9-9-9-9-9-9-9-9-9-|
-------------------------|-------------------------|-------------------------|


-------------------------|-------------------------|-------------------------|
-------------------------|-------------------------|-------------------------|
-9-9-9-9-9-9-7-7-7-7-7-7-|-------------------------|-------------------------|
-------------------------|-7-7-7-7/-\7-7-7-7-7-7-7-|-7-7-7-7-7-7-7-7-7-7-7/--|

Back to the second part of the intro

-------------------------|-----------------------9-|-------------------------|
-------------------------|---------------------7---|-------------------------|
----------------7----7---|--------------5----5-----|----------------7----7---|
-0---0-------------------|-0---0-------------------|-0---0-------------------|


-------------------------|-------------------------|-----------------------9-|
-------------------------|-------------------------|---------------------7---|
-------------5-5-5-5-5-5-|----------------7----7---|--------------5----5-----|
-3---3-------------------|-0---0-------------------|-0---0-------------------|


-------------------------|-------------------------|
-------------------------|-------------------------|
----------------7----7---|-5-5-5-5-5-5-------------|
-0---0-------------------|-------------5-5-5-5-5-5-|

Verse

-------------------------|-------------------------|-------------------------|
-------------------------|-------------------------|-----------------6-7-6---|
-7-7-7-7-7-7-7---4-5-4---|-7-7-7-7-7-7-7-4-5-7-5---|---------------9-------9-|
---------------7-------7-|-----------------------5-|-7-7-7-7-7-7-7-----------|


-------------------------|-------------------------|-------------------------|
-9-9-9-9-9-9-9-6-7-9-7-6-|-------------------------|-------------------2-----|
-------------------------|-5-5-5-5-5-5-5---2-4-2---|-5-5-5-5-5-5-5-4-5---5-4-|
-------------------------|---------------5-------5-|-------------------------|


-------------------------|-------------------------|-------------------------|
-------------------------|---------4-6-7-6-4-----4-|-------------------------|
-----7-------5---4-------|-----7-------------5-7---|-7-7-7-7-7-7-7---4-5-4---|
-0-------0-0---5---5-7-5-|-0-----------------------|---------------7-------7-|


-------------------------|-------------------------|-------------------------|
-------------------------|-----------------6-7-6---|-9-9-9-9-9-9-9-6-7-9-7-6-|
-7-7-7-7-7-7-7-4-5-7-5---|---------------9-------9-|-------------------------|
-----------------------5-|-7-7-7-7-7-7-7-----------|-------------------------|


-------------------------|-------------------------|-------------------------|
-------------------------|-------------------------|-----------------2-4-2---|
-------------------2-----|---------------2-4-5-4---|---------------5-------5-|
-2-2-2-2-2-2-2-4-5---5-4-|-2-2-2-2-2-2-2---------2-|-3-3-3-3-3-3-3-----------|


-------------------------|-------------------------|-------------------------|
-5-5-5-5-5-5-5-2-4-5-4-2-|-------------------5---7-|-------------------------|
-------------------------|-------------------------|-------------4-4-4-4-4-4-|
-------------------------|-7-7-7-7-7-7/-\7-7---7---|-7-7-7-7-7-7-------------|


-------------------6---7-|-------------------------|-------------------------|
-------------------------|-------------------------|-------------------------|
-5-5-5-5-5-5/-\5-5---5---|-5-5-5-5-5-5-7-7-7-7-7-7-|-9-9-9-9-9-9-9-9-9-9-9-9-|
-------------------------|-------------------------|-------------------------|


-------------------------|-------------------------|-------------------------|
-------------------------|-------------------------|-------------------------|
-9-9-9-9-9-9-7-7-7-7-7-7-|-------------------------|-------------------------|
-------------------------|-7-7-7-7/-\7-7-7-7-7-7-7-|-7-7-7-7-7-7-7-7-7-7-7/--|

Interlude

-------------------------|-------------------------|-------------------------|
-------------------------|-----------------------7-|-------------------------|
-----7-------5---4-------|-----7---------------7---|-----7-------5---4-------|
-0-------0-0---5---5-7-5-|-0-------0-0-5-----5-----|-0-------0-0---5---5-7-5-|


-------------------------|-------------------------|-------------------------|
-------------------------|-------------------------|-----------------------7-|
-------------5-----5-5-5-|-----7-------5---4-------|-----7---------------7---|
-3-----3-3-3-------------|-0-------0-0---5---5-7-5-|-0-------0-0-5-----5-----|

								(time signature 9/8)
-------------------------|-------------------------|-------------------|
-------------------------|-------------------------|-------------------|
-----7-------5---4-------|-------------------------|-------------------|
-0-------0-0---5---5-7-5-|-3-----3-3-3-5-----------|-7/----------------|


-------------------|-------------------|-------------------|
-------------------|-------------------|-2-1---------------|
-------------------|-------------------|-----4-2-0---------|
-7-7-7-------------|-7-----------------|-----------4-2-4-5-|


-------------------|-------------------|-------------------|
-------------------|-------------------|-------------------|
-------------------|-------------------|-------------------|
-7---/-------------|-7-7-7-------------|-7----7------------|


-------------------|
-9-6-7-6-----------|
---------9-7-6-7-9-|
-------------------|
(12 beats per bar. I have no idea how it fits in the time signature)
-------------------------------------------------------------|
-------7-9-9-9-------9-9-9--------7-9-9-9--------7-9---9-7---|
-------------------------------------------------------------|
-7--7----------7--7---------7--7-----------7--7------7-------|


-------7-9-9-9-------9-9-9--------7-9-9-9--------7-9---9-7---|
-------------------------------------------------------------|
-7--7----------7--7---------7--7-----------7--7------7-------|
-------------------------------------------------------------|


-11--11---11-13-14-13-11----11-13-11----------------------------------------|
-------------------------14-----------------11-13-14-13-11-------11---------|
---------------------------------------14------------------12-14-----14--14-|
----------------------------------------------------------------------------|

----------------------|-11--11---11-13-14-13-11----11-13-11-----------------|
----------------------|-------------------------14-----------------11-13-14-|
-9-11-12-11-9----9-10-|---------------------------------------14------------|
--------------12------|-----------------------------------------------------|

---------------------------------------------|
13-11-------11-------------------------------|
------12-14-----14--14--9-11-12-11-9----9-10-|
-------------------------------------12------|

(8 beats per bar. Again, its very weird because the guitar is in 9/8)

--------------------------------------|--------------------------------------|
-------7-9-9-9-9-9-9--------7-9---9-7-|-------7-9-9-9-9-9-9--------7-9---9-7-|
--------------------------------------|--------------------------------------|
-7--7-----------------7--7------7-----|-7--7-----------------7--7------7-----|

						                (Slowing down)
-------7-9-9-9-9-9-9--------7-9---9-7-|-------7-9-9-9-9-9-9------------------|
--------------------------------------|--------------------------------------|
-7--7-----------------7--7------7-----|-7--7-----------------7--7-\12--11--9-|
--------------------------------------|--------------------------------------|

Solo

(time signature 4/4)
||------------------------|-------------------------|------------------------|
||-----------------2------|-------------------------|------9---7-------------|
||-4---4-----0-2-4---4--0-|-2---2-6-7-9-0-2---------|----7---7---7---7----7--|
||-------2-4--------------|------------------0--2-4-|-5------------5---5-----|


-------------------------|-------------------------|-------------------------|
-------4---6-------------|-------------------------|-------------------------|
------------------/7--6--|-4---4-----0-2-4--4--6---|-7---7-----7-9-7---7-----|
-4---7---7---7-4---------|-------2-4---------------|-------5-7-------7-----4-|


--------------------------|-------------------------||
-------9---7--------------|-------------------------||  3x
-----7---7---7---7-----7--|-2---2-6-7-9-0-2---------||
-5-------------5---5------|-------------------2--4--||


-------------------------|----------------------|-------------------------|
-------9---7-------------|----------------------|-----------------------4-|
-----7---7---7---7-----7-|-------0-2------------|-2--2-6-7-9-0-2--2---2---|
-5-------------5---5-----|-0---0------0--0----0-|-------------------------|


----------------------|-------------------------|------------------------|
----------------------|-------------------------|------------------------|
--------0-2-----/7--6-|-4---4-----0-2-4--4------|------------------------|
-0---0-------0--------|-------2-4-----------0---|-2---2-6-7-9-0-2--2-4---|


--------------------------|--------------4-----|---------------------|
-------9---7--------------|--------------------|---------------------|
-----7---7---7---7-----7--|-2--------------2---|-2-------------------|
-5-------------5---5------|--------------------|---------------------|


End part

(time signature 12/8)
-------------------------|-------------------------|-------------------------|
-------------------------|-------------------------|-------------------------|
-------------------------|-------------------------|-------------------------|
-------------------------|-------------------------|-------------------------|


-------------------------|-------------------------|-------------------------|
-------------------------|-------------------------|-------------------------|
-------------------------|-7-7-7-7-7-7-7-7-7-7-7-7-|-7-7-7-7-7-7-7-7-7-7-7-7-|
-------------------------|-------------------------|-------------------------|


-------------------------|-------------------------|-------------------------|
-------------------------|-------------------------|-------------------------|
-7-7-7-7-7-7-7-7-7-7-7-7-|-7-7-7-7-7-7-7-7-7-7-7-7-|-----7-------5---4-------|
-------------------------|-------------------------|-0-------0-0---5---5-7-5-|


-------------------------|-------------------------|-------------------------|
-------------------------|-------------------------|---------4-6-7-6-4-----4-|
-----7-------5-4---------|-----7-------5---4-------|-----7-------------5-7---|
-0---------0-----7-4-5-7-|-0-------0-0---5---5-7-5-|-0-----------------------|

Play those last 4 bars as many times as the song goes.


If you have any questions about the tab or if you want to know which part I composed
which parts are original feel free to email me. If you notice any mistakes as well then do
me.

            
            
Suggest correction
Creating personal tab
Creating personal tab
You can edit any tab online and save it as your Personal.

You can edit, replace or remove any tab part or add personal notes – all changes will be seen only by you.

Personal tabs can be accessed anytime from any device, even offline.
Learn more »
comments
print report bad tab
1 comment total.
0 reply
FuruiShin 1,542 Sep 07, 2010 11:20 AM

Wow great tab :D. Those weird time singatures... Official score book explain this like this: Bass plays 12/9 over band 9/8 :P. I not a bass player(my beloved skinny 6 strings :>) but it's quite interesting thing to play with a band ;D!

guest
You may want to rate the tab now too:
select rating
Wanna post a correction for this tab? Suggest correction