Oops, an error
Loading. Please wait.

Lucille tab

709 views 12 this week
2 commentsread comments
1 2 3 4 5
x 3
add to favorites
×
Save as Personal and add changes to this tab that will be seen only by you. Learn more ›
×
You can save this tab as Personal to edit and correct it or add notes. All changes will be seen only by you. Learn more »
launch autoscroll
font size
0
reset
how to read this tab
guitar tuner
edit
Autoscroll
slow
fast
+/-
esc
set tempo
stop
Author
[Intro] 

e|-------3-----------3-----------3-----------3-------------------------------| 
B|-------3-----------3-----------3-----------3-------------------------------| 
G|-------3-----------3-----------3-----------3-------------------------------| 
D|----------3-5-3-5-----3h5---------------------3-5--------------------------| 
A|--------------------------3-------3-5-3-5----------------------------------| 
E|--3------------------------------------------------------------------------| 

e|-------3-----------3-----------3-------------------------------------------| 
B|-------3-----------3-----------3------6------------------------------------| 
G|-------3-----------3-----------3--5/7---7\5-3------------------------------| 
D|----------3-5-3-5-----3h5---------------------3h5--------------------------| 
A|--------------------------3------------------------------------------------| 
E|--3------------------------------------------------------------------------| 


[Verse] 

e|-------3-----------3-----------3-----------3-------------------------------| 
B|-------3-----------3-----------3-----------3-------------------------------| 
G|-------3-----------3-----------3-----------3-------------------------------| 
D|---------------------------------------------------------------------------| 
A|---------------------------------------------------------------------------| 
E|---------------------------------------------------------------------------| 

e|-------3-----------3-----------3-----------3-------------------------------| 
B|-------3-----------3-----------3-----------3-----------------3--3--3-------| 
G|-------3-----------3-----------3-----------3-----------------5b-5b-5b------| 
D|---------------------------------------------------------------------------| 
A|---------------------------------------------------------------------------| 
E|---------------------------------------------------------------------------| 


[Chorus] 

e|---------------------------------------------------------------------------| 
B|---------------------------------------------------------------------------| 
G|--5--5-x-------3--3-x------------------------------------------------------| 
D|--5--5-x-------3--3-x------------------------------------------------------| 
A|--3--3-x-------1--1-x---------1----------1---------------------------------| 
E|--------------------------1-3---3p1--1-3---3p1-----------------------------| 

e|---------------------------------------------------------------------------| 
B|---------------------------------------------------------------------------| 
G|--5--5-x-------3--3-x------------------------------------------------------| 
D|--5--5-x-------3--3-x------------------------------------------------------| 
A|--3--3-x-------1--1-x---------1----------1---------------------------------| 
E|--------------------------1-3---3p1--1-3---3p1-----------------------------|



************************************

| x  Dead note
| h  Hammer-on
| p  Pull-off
| b  Bend
| /  Slide up
| \  Slide down

************************************

            
            
Suggest correction
Creating personal tab
Creating personal tab
You can edit any tab online and save it as your Personal.

You can edit, replace or remove any tab part or add personal notes – all changes will be seen only by you.

Personal tabs can be accessed anytime from any device, even offline.
Learn more »
Give kudos to tab author, rate the tab!
1 2 3 4 5
comments
print report bad tab
2 comments total.
+1 reply
julienbaudry 22 Jan 28, 2017 06:58 AM

thank you so much! love this group

I would love to play southern boy :)

0 reply
kellerw201 43 Jan 30, 2017 09:48 AM

It's a pretty good tab, but there are some missing areas. Could you possibly add them in?

guest
You may want to rate the tab now too:
select rating
Wanna post a correction for this tab? Suggest correction