Oops, an error
Loading. Please wait.

If You Ever Get Lonely tab

216 views 1 this week
no commentswrite comment
1 2 3 4 5
2 more votes to show rating
add to favorites
×
Save as Personal and add changes to this tab that will be seen only by you. Learn more ›
×
You can save this tab as Personal to edit and correct it or add notes. All changes will be seen only by you. Learn more »
launch autoscroll
font size
0
reset
how to read this tab
guitar tuner
edit
Autoscroll
slow
fast
+/-
esc
set tempo
stop
Author
Difficulty
-------------------------------------------------------------------------------
                             If You Ever Get Lonely - John Waite
-------------------------------------------------------------------------------
Tabbed by:RPS080


  Intro and Verse

e|-5-5-5--5-5-5--5-5-5--5-----------------------------------------------|
B|-3-3-3--2-2-3--3-3-3--2----3-3-3--2-2--3--3-3-3--2--------------------|
G|-2-2-2--2-2-3--2-2-2--2----2-2-2--2-2--2--2-2-2--2--------------------|
D|-0-0-0--0-0-0--0-0-0--0----0-0-0--0-0--0--0-0-0--0--------------------|
A|-0-------------0-----------x-x-x--x-x--x--x-x-x--x--------------------|
E|---------------------------3-3-3--3-3--3--3-3-3--3--------------------|

e|---------------------------5-5-5--5-5--5--5-5-5--5--------------------|
B|-3-3-3--2-2-3--3-3-3--2----3-3-3--2-2--3--3-3-3--2--------------------|
G|-0-0-0--0-0-0--0-0-0--0----2-2-2--2-2--2--2-2-2--2--------------------|
D|-2-2-2--2-2-2--2-2-2--2----0-0-0--0-0--0--0-0-0--0--------------------|
A|-2-2-2--2-2-2--0-0-0--0----0------------------------------------------|
E|----------------------------------------------------------------------|


  Pre Chorus
  
e|----------------------------------------------------------------------|
B|-------3-3-3---------2-2-3-3--------------3-3-3-2---------------------|
G|-------2-2-2---------2-2-2-2--------------2-2-2-2---------------------|
D|-------0-0-0---------0-0-0-0--------------0-0-0-0---------------------|
A|------------------------------------------x-x-x-x---------------------|
E|------------------------------------------3-3-3-3---------------------| 
   and I know that California's not to blame. 


e|----------------------------------------------5----------------------|
B|-------3-3-3---------2-2-3-3------------------3----------------------|
G|-------2-2-2---------2-2-2-2------------------2----------------------|
D|-------0-0-0---------0-0-0-0------------------0----------------------|
A|----------------------------------------------x----------------------|
E|----------------------------------------------3----------------------| 
   and I know there's millions of people in L.A.   But if you ever get



 Chorus

    D           D6add9                G?         A

e|--2-------------2-------------------2---------------------------------|
B|--3-------------3-------------------3----------2----------------------|
G|--2-------------2-------------------0----------2----------------------|
D|----------------0-------------------0----------2----------------------|
A|----------------2-------------------x----------0----------------------|
E|------------------------------------3---------------------------------|
  Lonely, if you miss me, if you need someone to listen. Even its 

   D       D6add9                                G?              
  only the sound of someones voice who loves you that you need to hear

                     A
  you know where to find me. If you ever get lonely (back to main riff)


  End 2 Verse with:

e|----------------------------------------------------------------------|
B|--------3-3-3-------2-2-------------------3-----------------2---------|
G|--------0-0-0-------0-0-------------------0-----------------2---------|
D|--------2-2-2-------2-2-------------------0-----------------2---------|
A|--------0-0-0-------0-0-------------------x-----------------0---------|
E|------------------------------------------3---------------------------|
   do you expect me to pretend. That I dont love you. I dont love you


  End 2 Chorus with:

e|------------------------------------------------------------------------|
B|-3--3--3--3---0-------------------------------3-------------------------|
G|-0--0--0--2---0-------------------------------0-------------------------|
D|-0--0--2--0---2-------------------------------0-------------------------|
A|-x--2--0--0---2-------------------------------x-------------------------|
E|-3--------------------------------------------3-------------------------|
                Were you ever really listening. Were you ever really there

            
            
Suggest correction
Creating personal tab
Creating personal tab
You can edit any tab online and save it as your Personal.

You can edit, replace or remove any tab part or add personal notes – all changes will be seen only by you.

Personal tabs can be accessed anytime from any device, even offline.
Learn more »
Give kudos to tab author, rate the tab!
1 2 3 4 5
comments
print report bad tab
guest
You may want to rate the tab now too:
select rating
Wanna post a correction for this tab? Suggest correction