Oops, an error
Loading. Please wait.

Cavatina tab

version 2
version 2

Whole song

Interactive

17,505 views 3 this week
4 commentsread comments
1 2 3 4 5
x 3
add to favorites
×
Save as Personal and add changes to this tab that will be seen only by you. Learn more ›
×
You can save this tab as Personal to edit and correct it or add notes. All changes will be seen only by you. Learn more »
launch autoscroll
font size
0
reset
how to read this tab
guitar tuner
edit
Autoscroll
slow
fast
+/-
esc
set tempo
stop
Author
Difficulty
intermediate
About this tab version
Wow thats a pretty good tab lol. Was this info helpful? Yes No
                                        CAVATINA
                                      by Stanley Myers
this tab is perfect any error is purely clerical.

Gtr I - John Williams - nylon string acoustic
                                        

Intro
Q.=56
6/8
 E   E   E   E   E   E    E   E   E   E   E   E
 .   .   .   .   .   .    .   .   .   .   .   .    
|------------4-----------|----------------4---5-/-|
|--------5-------5-------|------------5-----------|
|----4---------------4---|--------4---------------|
|------------------------|----6-------------------|
|------------------------|------------------------|
|0-----------------------|0-----------------------|

part A
 H.                       H.
 E   E   E   E   E   E    E   E   E   E   E   E
 .   .   .   .   .   .    .   .   .   .   .   .    
|7-----------------------|7-----------------------|
|------------9-----------|------------9-----------|
|--------9-------9-------|--------8-------8-------|
|----9---------------9---|----9---------------9-\-|
|7-----------------------|6-----------------------|
|------------------------|------------------------|

 S S E
 E   E   E   E   E   E    E   E   E   E   E   E
 .   .   .   .   .   .    .   .   .   .   .   .    
|----9-------------------|------------0-----------|
|1012--------------------|------------------------|
|------------9-----------|--------6-------6-------|
|--------11------11------|----7---------------7---|
|----12--------------12-\|9-----------------------|
|9-----------------------|------------------------|

 S S Q
 E   E   E   E   E   E    E   E   E   E   E   E
 .   .   .   .   .   .    .   .   .   .   .   .    
|--7-9-------0-----------|------------0-------7p5-|
|10----------------------|------------------------|
|--------6-------6-------|--------6-------6-------|
|----7---------------7---|----7-------------------|
|------------------------|------------------------|
|7-----------------------|7-----------------------|

 H.
 E   E   E   E   E   E    E   E   E   E   E   S S
 .   .   .   .   .   .    .   .   .   .   .   .    
|7-----------------------|--------------------5p4-|
|------------4-----------|------------3-----------|
|--------4-------4-------|--------4-------4-------|
|----6---------------6---|----6-------------------|
|------------------------|------------------------|
|0-----------------------|0-----------------------|

 Q.          Q            Q.
 E   E   E   E   E   E    E   E   E   E   E   S S
 .   .   .   .   .   .    .   .   .   .   .   .    
|4-------------------4---|2-----------2-----------|
|------------5-----------|--------2-------2-----5-|
|--------6-------6-------|----2---------------2---|
|----6-------------------|0-----------------------|
|0-----------------------|------------------------|
|------------------------|------------------------|

 Q.                       Q.
 E   E   E   E   E   E    E   E   E   E   E   E
 .   .   .   .   .   .    .   .   .   .   .   .    
|2-----------2-----------|0-----------0-----------|
|--------3-------3-------|--------0-------0-------|
|----4---------------4---|----0---------------0---|
|------------------------|------------------------|
|------------------------|3-----------------------|
|3-----------------------|------------------------|

 Q.                               E   E   Q  
 E   E   E   E   E   E    E   E   E   E   E   E
 .   .   .   .   .   .    .   .   .   .   .   .    
|0-----------0-----------|--------2---------------|
|--------2-------2-------|------------2---4-------|
|----2---------------2---|--------2-------2-------|
|------------------------|----4---------------4---|
|------------------------|2-----------------------|
|2-----------------------|------------------------|

 H.
 E                                     
 E   E   E   E   E   E    E   E   E   E   E   E 
 .   .   .   .   .   .    .   .   .   .   .   .    
|0-----------------------|------------0---4---7-/-|
|------------------------|0-------0---------------|
|2-------1-----------1---|----1-------------------|
|----4-------1---2-------|------------------------|
|------------------------|------------------------|
|0-----------------------|------------------------|

part b

 H.                       Q.          Q       S  S
 E   E   E   E   E   E    E   E   E   E   E   E  
 .   .   .   .   .   .    .   .   .   .   .   .    
|12----------------------|12------------------11p9|
|------------------------|------------------------|
|------------9-----------|------------9-----------|
|--------9-------9-------|--------9-------9-------|
|----11--------------11--|9---11--------------11--|
|9-----------------------|------------------------|

         S S E
 E   E   E   E   E   E    E   E   E   E   E   E
 .   .   .s  .   .   .    .   .   .   .   .   .    
|9-------111211----------|----------------9/--7-/-|
|------------7-----------|------------9-----------|
|--------8-------8-------|--------8---------------|
|----8---------------8---|----9-------------------|
|------------------------|------------------------|
|7-----------------------|7-----------------------|

 Q                        Q       E   E   Q
 E   E   E   E   E   E    E   E   E   E   E   E 
 .   .   .   .   .   .    .   .   .   .   .   .    
|5-----------0-----------|5-------7---------------|
|--------2-------2-------|------------5---7-------|
|----2---------------2---|--------6-------6-------|
|------------------------|----7---------------7---|
|------------------------|------------------------|
|2-----------------------|7-----------------------|

 Q.                                       E   E
 E   E   E   E   E   E    E   E   E   E   E   
 .   .   .   .   .   .    .   .   .   .   .   .    
|------------------------|------------------------|
|9-----------9-----------|------------3---5-/-7---|
|--------8-------8-------|--------4-------4-------|
|----9---------------9---|----6-------------------|
|7-----------------------|------------------------|
|------------------------|0-----------------------|


                         to coda

 H.                       H.
 E   E   E   E   E   E    E   E   E   E   E   E  
 .   .   .   .   .   .    .   .   .   .   .   .    
|4-----------------------|5-----------------------|
|------------5-----------|------------7-----------|
|--------6-------6-------|--------6-------6-------|
|----6---------------6---|----7---------------7---|
|0-----------------------|5-----------------------|
|------------------------|------------------------|

 H.                       H.
 E   E   E   E   E   E    E   E   E   E   E   E 
 .   .   .   .   .   .    .   .   .   .   .   .    
|6-----------------------|7-----------------------|
|------------7-----------|------------7-----------|
|--------6-------6-------|--------4-------4-------|
|----8---------------8---|----4---------------4---|
|7-----------------------|6-----------------------|
|------------------------|------------------------|

 Q.                       Q.
 E   E   E   E   E   E    E   E   E   E   E   E
 .   .   .   .   .   .    .   .   .   .   .   .    
|7-----------------------|12--------------11--12--|
|------------7-----------|--------0-------0-------|
|--------4---------------|----0-------9-------0---|
|----4-------------------|------------------------|
|5-----------------------|------------------------|
|------------------------|8-----------------------|

 E                        E       E       E
 Q   E   E   E   E   E    Q   E   E   E   Q   E 
 .   .   .   .   .   .    .   .   .   .   .   .    
|12--8---8---10--10--7---|7---8---8-------7---8---|
|------------------------|------------10----------|
|------------------------|9-----------------------|
|9---------------10------|--------10--------------|
|9-------9---------------|----------------9-------|
|7-----------------------|------------------------|

 S S             E                E       E
 Q   E   E   E   Q   E    E   E   Q   E   E   E
 .ls .   .   .   .   .    .   .   .   .   .   .    
|10128---8---10--10--7---|7---8-------------------|
|------------------------|--------10--7-s-5-------|
|------------------------|9-------------------5---|
|----------------10------|--------10--------------|
|--------9---------------|----------------9-------|
|7-----------------------|------------------------|

                          part c
                         a tempo
 E                        Q.              Q                
 H.  E   E   E   E   E    E   E   E   E   E   E        
 .   .   .   .   .   .    .   .   .   .   .   .    
|------------------------|------------------------|
|0-----------------------|------------------------|
|----2---0-------0---2---|3-----------3---3-------|
|------------4-----------|--------4-------4-------|
|2-----------------------|----4---------------4---|
|------------------------|0-----------------------|
 
 Q           E       E    Q.
 E   E   E   Q   E   E    E   E   E   E   E   E
 .   .   .   .   .   .    .   .   .   .   .   .  
|------------3-----------|------------------------|
|4-------4-------4-/-6---|3-----------3-----------|
|----4-------4-------4---|--------3-------3-------|
|5-----------------------|----3---------------3---|
|------------------------|------------------------|
|------------------------|4-----------------------|

 Q           E            Q.             
 E   Q   E   Q.  E   E    E   E   E   E   E   E 
 .   .   .   .   .   .    .   .   .   .   .   .  
|1-----------2-------1-/-|3-----------3-----------|
|--------4-------4-------|--------4-------4-------|
|----3-------3-----------|----3---------------3---|
|------------------------|------------------------|
|------------------------|4-----------------------|
|2-----------------------|------------------------|

 Q       E   E   E   E    H.
 E   E   E   E   E   E    E   E   E   E   E   E  
 .   .   .   .   .   .    .   .   .   .   .   .  
|6-------4---4---4---6---|7-----------------------|
|--------4---4---4-------|------------------------|
|----4---------------4---|------------9-----------|
|------------------------|--------9-------9-------|
|2-----------------------|----7---------------7---|
|------------------------|0-----------------------|

                          H.
 E   E   E   E    E   E   E   E   E   E   E   E 
 .   .   .   .   .   .    .   .   .   .   .   .  
|----------------------9-|7-----------------------|
|------------------------|------------------------|
|------------9-----------|------------8-----------|
|--------9-------9-------|--------7-------7-------|
|----7---------------7---|----9---------------9---|
|0-----------------------|7-----------------------|

                          H.
 E   E   E   E   E   E    E   E   E   E   E   E 
 .   .   .   .   .   .    .   .   .   .   .   .  
|----------------------9-|7-----------------------|
|------------------------|------------------------|
|------------8-----------|------------4-----------|
|--------7-------7-------|--------6-------6-------|
|----9---------------9---|----5---------------5---|
|7-----------------------|0-----------------------|
  
             E   E   E    Q.
 Q   E   E+  E   E   E    E   E   E   E   E   E
 .   .   .   .   .   .    .   .   .   .   .   .  
|----9-s-5---4---2---0---|0-----------0-----------|
|--------2---------------|--------2-------2-------|
|----------------2-------|----2---------------2---|
|--------------------2---|------------------------|
|0-----------------------|------------------------|
|------------------------|2-----------------------|

 Q       E+  E   Q        Q.
 E   E   E   E   E    E   E   E   E   E   E   E
 .   .   .   .   .   .    .   .   .   .   .   .  
|--------2---------------|0-----------------------|
|5-----------2---4-------|------------------------|
|--------2-------2-------|2-------1-----------1---|
|----2---------------4---|----4-------1---2-------|
|2-----------------------|------------------------|
|------------------------|0-----------------------|

     ds al coda(part a)
     at this point start                  
       over at part A and |
        this is the coda \|/
                          V
                          Q.
 E   E   E   E   E   E    E   E   E   E   E   S S
 .   .   .   .   .   .    .   .   .   .   .   .  
|------------0---4---5-s-|2-----------2-----------|
|0-------0---------------|--------2-------2-----5-|
|----1-------------------|----2---------------2---|
|------------------------|0-----------------------|
|------------------------|------------------------|
|------------------------|------------------------|

 Q.                       Q.
 E   E   E   E   E   E    E   E   E   E   E   E 
 .   .   .   .   .   .    .   .   .   .   .   .  
|2-----------2-----------|0-----------0-----------|
|--------3-------3-------|--------0-------0-------|
|----4---------------4---|----0---------------0---|
|------------------------|------------------------|
|------------------------|3-----------------------|
|3-----------------------|------------------------|

 Q.                               E+  E   Q
 E   E   E   E   E   E    E   E   E   E   E   E
 .   .   .   .   .   .    .   .   .   .   .   .  
|0-----------0-----------|--------2---------------|
|--------2-------2-------|------------2---4-------|
|----2---------------2---|--------2-------2-------|
|------------------------|----2---------------4---|
|------------------------|2-----------------------|
|2-----------------------|------------------------|

 H.                                   E
 E   E   E   E   E   E    E   E   E   Q   E   E  
 .   .   .   .   .   .    .   .   .   .   .   .  
|0-----------------------|----------------4---7-/-|
|------------------------|0-------0---5-----------|
|2-------1-----------1---|----1-------4-----------|
|----4-------1---2-------|------------6-----------|
|------------------------|------------4-----------|
|0-----------------------|------------------------|
FREE TIME
 Q.          E   E        E
                 Q        Q.  E   E   E   E   E          
 .   .   .   .   .   .    .   .   .   .   .   .  
|11----------12----------i----------------4-------i
|----------------2---4---i5---2---5-/-7-------7---i
|----------------2-------i2-----------------------i
|----------------4-------i4-----------------------i
|----------------4-------i2-----------------------i
|----------------2-------i------------------------i

                 Q.
 Q.      Q       Q        H.
 .   .   .   .   .   .    .   .   .   .   .   .  
i--------0-------0-------i------------------------||
i------------------------i------------------------||
i----------------2-------i4-----------------------||
i4---------------4-------i6-----------------------||
i2-----------------------i------------------------||
i0-----------------------i------------------------||


END





            
            
Suggest correction
Creating personal tab
Creating personal tab
You can edit any tab online and save it as your Personal.

You can edit, replace or remove any tab part or add personal notes – all changes will be seen only by you.

Personal tabs can be accessed anytime from any device, even offline.
Learn more »
Give kudos to tab author, rate the tab!
1 2 3 4 5
comments
print report bad tab
4 comments total. Showing first comments.
+1 reply
SsPunk 140 Jul 28, 2008 06:55 AM

This is completely wrong..

+1 reply
Kiltedmetalhed 10 Mar 06, 2009 07:18 PM

This IS NOT perfect. It sounds way off.

0 reply
Georginaguitar 10 Apr 21, 2010 11:41 AM

Sorry mate this is nowhere near right.

guest
You may want to rate the tab now too:
select rating
Wanna post a correction for this tab? Suggest correction