Oops, an error
Loading. Please wait.

Ghost Riders In The Sky tab

version 3
version 3

Whole song

Interactive

16,696 views 9 this week
no commentswrite comment
1 2 3 4 5
x 4
add to favorites
×
Save as Personal and add changes to this tab that will be seen only by you. Learn more ›
×
You can save this tab as Personal to edit and correct it or add notes. All changes will be seen only by you. Learn more »
launch autoscroll
font size
0
reset
how to read this tab
guitar tuner
edit
Autoscroll
slow
fast
+/-
esc
set tempo
stop
Edit of Ghost riders in the sky (original tab done by LOGAN SMALL)
Edited for sound quality (and well it was ment to be done with Capo on 2nd string but i 
it just a little i guess)


e-------------------------------------------------------|
b-------------------------------------------------------|
g-------------------------------------------------------|
d--------------------------------------------2-4-55---4-|
a----2-22-4-5-55-2---------------2-22-4-5-55--------5---|
e--2---------------5-55-2-5----2------------------------|


e------------------------------------------------------|
b------------------------------------------------------|
g------4-4-44------------------------------------------|
d--4-4--------4-4-44-----------------------------------|
a--------------------5-2--------5-55----4/5-22---2-----|
e------------------------3-33-3----------------5-------|


e---------|
b---------|
g---------|
d--44-44--|
a-2-------|
e----2----|

            
            
Suggest correction
Creating personal tab
Creating personal tab
You can edit any tab online and save it as your Personal.

You can edit, replace or remove any tab part or add personal notes – all changes will be seen only by you.

Personal tabs can be accessed anytime from any device, even offline.
Learn more »
comments
print report bad tab
guest
Wanna post a correction for this tab? Suggest correction