Oops, an error
Loading. Please wait.
We have an official Hurt tab made by UG professional guitarists. Check out the tab »
×
53,239 views 141 this week
23 commentsread comments
1 2 3 4 5
x 15
add to favorites
×
Save as Personal and add changes to this tab that will be seen only by you. Learn more ›
×
You can save this tab as Personal to edit and correct it or add notes. All changes will be seen only by you. Learn more »
launch autoscroll
font size
0
reset
how to read this tab
guitar tuner
backing track
0:00
0:00
edit
Autoscroll
slow
fast
+/-
esc
set tempo
stop
Author
-------------------------------------------------------------------------------
                             "HURT" - Johnny Cash
-------------------------------------------------------------------------------

Tabbed by: Daryl Henson
Email: daryl84@earthlink.net

Tuning:

ok... I know this isnt much different from the previous 2 versions of the song.
I just figured I would input my part.

in standard tunning

**notes in ()'s are to be played very lightly**

Intro/Verse:
e|------0--------0---------2------|
B|------1--------1---------3------|
G|------2--------0-------2-2-2----|
D|----2-2------2-2-2----0--0------|
A|---0--0-----3--3----------------|
E|--------------------------------|

Chorus/Bridge:
e|--3--3-3-3---3--3-3-3---1--1-1-1---3--3-3-3--|
B|--3--3-3-3---3--3-3-3---1--1-1-1---1--1-1-1--|
G|--0--0-0-0---2--2-2-2---2--2-2-2---0--0-0-0--|
D|--0--0-0-0---2--2-2-2---3--3-3-3---2--2-2-2--|
A|-----------------0-0-0-----------------3-3-3-|
E|------3-3-3------------------1-1-1-----------|
*listen to this part, and you'll know what im trying to say*

Lyrics:

Verse 1:
I hurt myself today
to see if I still feel
I focus on the pain
the only thing that's real
the needle tears a hole
the old familiar sting
try to kill it all away
but I remember everything

Chorus:
what have I become?
my sweetest friend
everyone I know
goes away in the end
you could have it all
my empire of dirt
I will let you down
I will make you hurt

Verse 2:
I wear my crown of shit
on my liar's chair
full of broken thoughts
I cannot repair
beneath the stain of time
the feeling disappears
you are someone else
I am still right here

Chorus:
what have I become?
my sweetest friend
everyone I know
goes away in the end
you could have it all
my empire of dirt
I will let you down
I will make you hurt

Bridge:
if I could start again
a million miles away
I would keep myself
I would find a way

            
            
Suggest correction
Creating personal tab
Creating personal tab
You can edit any tab online and save it as your Personal.

You can edit, replace or remove any tab part or add personal notes – all changes will be seen only by you.

Personal tabs can be accessed anytime from any device, even offline.
Learn more »
comments
print report bad tab
23 comments total. Showing first comments.
-1 reply
rezzer 10 Apr 12, 2003 08:00 PM

Intro/Verse:
e|------0--------0-----------------|
B|------1--------1-----------3-----|
G|------2--------0-----------0-----|
D|----2-2------2-2-2-------4-------|
A|---0--0-----3--3-------5---------|
E|---------------------------------|

-1 reply
rezzer 10 Apr 12, 2003 08:00 PM

Intro/Verse:
e|------0--------0----------------|
B|------1--------1---------3------|
G|------2--------0---------0------|
D|----2-2------2-2-2-------4------|
A|---0--0-----3--3------5---------|
E|--------------------------------|

0 reply
rezzer 10 Apr 12, 2003 08:00 PM

i couldnt get things lined up properly this being my 1st time doing tab on a pc..

basicly slide that c chord up to the 5th fret and strum..

e|------0--------0----------------|
B|------1--------1--------- 3------|
G|------2--------0--------- 0------|
D|----2-2------2-2-2-------4------|
A|---0--0-----3--3------5---------|
E|--------------------------------|

guest
You may want to rate the tab now too:
select rating
Wanna post a correction for this tab? Suggest correction