Oops, an error
Loading. Please wait.

Luthers Boogie solo tab

version 1
version 1

Solo

5,395 views 12 this week
2 commentsread comments
1 2 3 4 5
1 last vote to show rating
add to favorites
×
Save as Personal and add changes to this tab that will be seen only by you. Learn more ›
×
You can save this tab as Personal to edit and correct it or add notes. All changes will be seen only by you. Learn more »
launch autoscroll
font size
0
reset
how to read this tab
guitar tuner
edit
Autoscroll
slow
fast
+/-
esc
set tempo
stop
Author
This solo is played by Luther Perkins in the song. listen to the sog to get the rhythm of it down.

Intro:
------------------------------------------|
------------------------------------------|
------------------------------------------|
------------------------------------------|
---------2---------2---2---2--------------|
-6-4-2-0---6-4-2-0---0---0----------------|


Solo:
-----------------------------------------------------------------------------|
-----------------------------------------------------------------------------|
-----------------------------------------------------------------11----------|
-----------------------------2---------2---------------------222----2--------|
---------2---------2-6-4-2-0---6-4-2-0-----------2---------2---------------2-|
-6-4-2-0---6-4-2-0-----------------------6-4-2-0---6-4-2-0------------34-0---|

This Solo is played between all verses of lyrics sang by johnny cash
Song is a tribute to Luther Perkins who died in 1968.

            
            
Suggest correction
Creating personal tab
Creating personal tab
You can edit any tab online and save it as your Personal.

You can edit, replace or remove any tab part or add personal notes – all changes will be seen only by you.

Personal tabs can be accessed anytime from any device, even offline.
Learn more »
Give kudos to tab author, rate the tab!
1 2 3 4 5
comments
print report bad tab
2 comments total.
+1 reply
deathmagnetic01 16 Sep 02, 2008 03:37 PM

I like mine better..................

0 reply
iamthebatman98 10 Mar 09, 2017 09:06 AM

It's just 4 2 0. Where you got the 6 from I don't know. Otherwise it's decent.

guest
You may want to rate the tab now too:
select rating
Wanna post a correction for this tab? Suggest correction