Oops, an error
Loading. Please wait.

Wichita Lineman chords

version 2
version 2

Whole song

1,009 views 15 this week
no commentswrite comment
1 2 3 4 5
x 4
add to favorites
×
Save as Personal and add changes to this tab that will be seen only by you. Learn more ›
×
You can save this tab as Personal to edit and correct it or add notes. All changes will be seen only by you. Learn more »
launch autoscroll
font size
0
reset
transpose
0
reset
simplify chords
display chords
guitar tuner
edit
Autoscroll
slow
fast
+/-
esc
set tempo
stop
Author
About this tab version
Accurate chords and solo included. Was this info helpful? Yes No
Strumming
There is no strumming pattern for this song yet. and get +5 IQ
[Chords]
e|---0-----0-----0-----1-----0-----2-----0-----0-----3-----1-----0-----|
B|---1-----3-----0-----1-----1-----3-----2-----3-----3-----3-----0-----|
G|---2-----4-----0-----2-----2-----2-----2-----2-----0-----2-----2-----|
D|---3-----5-----2-----2-----2-----0-----2-----2-----0-----0-----2-----|
A|---3-----5-----2-----x-----0-----x-----0-----0-----2-----x-----2-----|
E|---1-----3-----0-----3-----x-----x-----x-----x-----3-----x-----0-----|
   Fmaj7   G6    Em   F/G    Am    D     A   Asus4   G     Dm  Esus4

[Intro]
Fmaj7 G6 Fmaj7 G6

[Verse 1]
N.C.                    Fmaj7      Em
I am a lineman for the county 
                     F/G
and I drive the main road
Am               Em        D          A      Asus4      A
Searchin' in the sun for another overload

[Chorus 1]
N.C.                       G                                D        Dm
I hear you singin' in the wire, I can hear you through the whine
                 A         Esus4
And the Wichita Lineman 
                Fmaj7  
is still on the line

G6  Fmaj7  G6

[Verse 2]
N.C.                    Fmaj7     Em  
I know I need a small vacation 
                       F/G
but it don't look like rain
    Am                Em                   D
And if it snows that stretch down south 
                        A       Asus4       A
won't ever stand the strain

[Chorus 2]
N.C.                      G                                D        Dm
And I need you more than want you, and I want you for all time
                 A         Esus4 
And the Wichita Lineman 
                Fmaj7
is still on the line

G6  Fmaj7  G6

[Solo]
   N.C.                                  Fmaj7           
e|-------------------------------------|-------------------------------------|
B|-------------------------------------|-------------------------------------|
G|-------------------------------------|-------------------------------------|
D|------------0----3----3--2--3--2--0--|--2----2/5---------------------------|
A|-------3-----------------------------|-------------------------------------|
E|--3----------------------------------|-------------------------------------|

   Em                                    F/G
e|-------------------------------------|-------------------------------------|
B|-------------------------------------|-------------------------------------|
G|-------------------------------------|-------------------------------------|
D|-------------0---3---2--0------------|-------------------------------------|
A|---------3------------------3--------|-------------------------------------|
E|------3--------------------------3---|-----------------------------------3-|

     Am             Em                   D
e|-------------------------------------|-------------------------------------|
B|-------------------------------------|-------------------------------------|
G|-------------------------------------|-------------------------------------|
D|-------5---5------5---5------5---5---|--5---5/7-----2h4---2h4p2----0----0--|
A|---3----------3----------3-----------|--------------0-----0--------0----0--|
E|-------------------------------------|-------------------------------------|
      A                   Asus4          A
e|-------------------------------------|-------------------------------------|
B|-------------------------------------|-------------------------------------|
G|-------------------------------------|-------"And I need you more than..."-|
D|----0h2------------------------------|-------------------------------------|
A|----0--------------------------------|-------------------------------------|
E|-------------------------------------|-------------------------------------|

[Chorus 3]
N.C.                      G                                D        Dm
And I need you more than want you, and I want you for all time
                 A         Esus4 
And the Wichita Lineman 
                Fmaj7
is still on the line


G6  Fmaj7  G6  Fmaj7  G6  Fmaj7  G6  A


| N.C. No chord
| /    Slide up
| h    Hammer-on
| p    Pull-off
| x    Mute note

            
            
Suggest correction
Creating personal tab
Creating personal tab
You can edit any tab online and save it as your Personal.

You can edit, replace or remove any tab part or add personal notes – all changes will be seen only by you.

Personal tabs can be accessed anytime from any device, even offline.
Learn more »
comments
print report bad tab
guest
You may want to rate the tab now too:
select rating
Wanna post a correction for this tab? Suggest correction