Oops, an error
Loading. Please wait.

Wont Back Down chords

version 2
version 2

Whole song

105,463 views 150 this week
5 commentsread comments
1 2 3 4 5
x 138
add to favorites
×
Save as Personal and add changes to this tab that will be seen only by you. Learn more ›
×
You can save this tab as Personal to edit and correct it or add notes. All changes will be seen only by you. Learn more »
launch autoscroll
font size
0
reset
transpose
0
reset
display chords
guitar tuner
edit
Autoscroll
slow
fast
+/-
esc
set tempo
stop
Author
Difficulty
Unregistered
Strumming
There is no strumming pattern for this song yet. and get +5 IQ
Originally written By Tom Petty
Johnny Cash's Version


Listen TO Song For Timing


Repeat this Twice:

e|-----------------------------------------------------------------|
B|-----------------------2-0-2-----3-Let Ring----------------------|
G|-----------------------2-2-2-----2-Let Ring----------------------|
D|-----------------------2-2-2-----2-------------------------------|
A|--------------3-0------------------------------------------------|
E|----------0-3----------------------------------------------------|


[Verse 1]

     F#m    E    A         F#m    E    A
    Well I won't back down, no I won't back down
             F#m     E          D
    You can stand me up at the gates of hell
          F#m    E    A
    But I won't back down

           F#m  E   A                F#m   E   A
    Gonna stand my ground, won't be turned around
             F#m        E           D
    And I'll keep this world from draggin' me down
           F#m  E   A           F#m    E    A
    Gonna stand my ground and I won't back down


[Chorus]

     D   E   D                         E
    Hey baby, there ain't no easy way out
     D   E       F#m  E    A          F#m    E    A
    Hey, I will stand my ground and I won't back down


[Verse 2]

           F#m    E     A     F#m    E     A
    Well I know what's right I got just one life
          F#m         E        D
    In a world that keeps on pushin' me around
              F#m  E    A          F#m   E    A
    But I'll stand my ground and I won't back down


[Chorus]

     D    E     D                      E
    Hey baby, there ain't no easy way out
     D   E      F#m    E  A           F#m   E    A
    Hey, I will stand my ground and I won't back down
          F#m    E    A End On A
    And I won't back down
    No I won't back down

            
            
Suggest correction
Creating personal tab
Creating personal tab
You can edit any tab online and save it as your Personal.

You can edit, replace or remove any tab part or add personal notes – all changes will be seen only by you.

Personal tabs can be accessed anytime from any device, even offline.
Learn more »
comments
print report bad tab
5 comments total. Showing first comments.
+8 reply
thamlett 77 Apr 28, 2013 10:26 AM

e-----------------------------------------------------------------e
B-----------------------2-0-2-----3-Let Ring----------------------B
G-----------------------2-2-2-----2-Let Ring----------------------G
D-----------------------2-2-2-----2-------------------------------D
A--------------3-0------------------------------------------------A
E----------0-3----------------------------------------------------E

I'm pretty sure this is more accurate

+2 reply
trevor.ford.583 10 Jun 27, 2013 02:07 PM

this sounds much better!

-2 reply
tjneedspeed 10 Oct 28, 2013 07:18 PM

e-----------------------------------------------------------------------e
B---------------2---0-2---2/3-3-3-3-3-----------------------------------B
G---------------2---2-2---2---3-3-3-3-----------------------------------G
D-----------------------------------------------------------------------D
A-------3-0-------0-----0-----------------------------------------------A
E--0-3------------------------------------------------------------------E

I like this one better, you outta try it.
remember, they're all eighth notes with a quarter note (I believe) pause between the "low" part at the very beginning and the rest of the intro.

guest
Wanna post a correction for this tab? Suggest correction