Oops, an error
Loading. Please wait.

I Can See Clearly Now bass

version 1
version 1

Whole song

Interactive

11,725 views 18 this week
2 commentsread comments
1 2 3 4 5
1 last vote to show rating
add to favorites
×
Save as Personal and add changes to this tab that will be seen only by you. Learn more ›
×
You can save this tab as Personal to edit and correct it or add notes. All changes will be seen only by you. Learn more »
launch autoscroll
font size
0
reset
guitar tuner
edit
Autoscroll
slow
fast
+/-
esc
set tempo
stop
Author
                         I Can See Clearly Now                               
 
                             Nash, Johnny  

This is a cool song for a novice as long as the player uses all four digits on the 
fretting hand.  In order to catch the Reggae feel, it will be necessary to listen to the song.    



     Q    Q    E  E  E  E     Q    Q    E  E  E  E   
G||------------------------|------------------------|
D||------------------------|------------------------|
A||--5----L----------------|--5----L----------------|
E||---------------5--5-----|---------------5--5-----|


    Q    E  E  E  E  E  E     Q    E  Q    E  E  E     Q    Q    E  E  E  E   
|--------------------2-----|---------------------2--|------------------------|
|*----------------4-----4--|--5----L-------4--5-----|------------------------|
|*--5----L-----5-----------|------------------------|--5----L----------------|
|--------------------------|------------------------|---------------5--5-----|


  Q    Q    E  E  E  E     Q    E  E  E  E  E  E     Q    E  E  E  E  E  E   
------------------------|-------------------2-----|-------------------------|
------------------------|----------------4-----4--|--5----L-----------2-----|
--5----L----------------|--5----L-----5-----------|----------------0--------|
---------------5--5-----|-------------------------|-------------2-----------|


  H        H           E  E  E  E  E  E  Q       Q    E  E  E  E  E  E   
--------------------|-------------------------|-------------------2-----|
--------------------|-------------------------|----------------4-----4--|
--2-----------------|-----7--------7----------|--5----L-----5-----------|
--------------------|--5--------5-----7-------|-------------------------|


  Q    E  Q    E  E  E     Q    Q    E  E  E  E     Q    Q    E  E  E  E   
---------------------2--|------------------------|------------------------|
--5----L-------4--5-----|------------------------|------------------------|
------------------------|--5----L----------------|--5----L----------------|
------------------------|---------------5--5-----|---------------5--5-----|


  W                   H        E  E  E  E     Q    Q    E  E  E  E   
-------------------|-----------------------|------------------------|
-------------------|--5--------------------|------------------------|
--3----------------|-----------------------|--5----L----------------|
-------------------|--------------5--5-----|---------------5--5-----|


  Q    Q    E  E  E  E     H        E  E  E  E     H        E  E  E  E   
------------------------|-----------------------|-----------------------|
------------------------|-----------------------|--5--------------------|
--5----L----------------|--3--------------------|-----------------------|
---------------5--5-----|--------------3--3-----|--------------5--5-----|


  Q    Q    E  E  E  E     Q    Q    E  E  E  E       W                 
------------------------|-------------------------||-------------------|
------------------------|------------------------*||-------------------|
--5----L----------------|--5----L----------------*||--8----------------|
---------------5--5-----|---------------5--5------||-------------------|


  W                   W                   W                   W                 
-------------------|-------------------|-------------------|-------------------|
-------------------|--5----------------|--L----------------|-------------------|
--L----------------|-------------------|-------------------|--8----------------|
-------------------|-------------------|-------------------|-------------------|


  W                   W                   W                   W                 
-------------------|-------------------|-------------------|-------------------|
-------------------|--7----------------|--L----------------|--6----------------|
--L----------------|-------------------|-------------------|-------------------|
-------------------|-------------------|-------------------|-------------------|


  W                   W                   W                   W                 
-------------------|-------------------|-------------------|--5----------------|
--5----------------|--6----------------|--5----------------|-------------------|
-------------------|-------------------|-------------------|-------------------|
-------------------|-------------------|-------------------|-------------------|


  W                   W                   W                   
--4----------------|-------------------|--------------------||
-------------------|--7----------------|--L----------------*||
-------------------|-------------------|-------------------*||
-------------------|-------------------|--------------------||




Duration Legend
---------------
W - whole
H - half
Q - quarter
E - 8th
S - 16th
T - 32nd
X - 64th
. - note dotted
|-n-|  - n-tuplets
L - let ring (previous note)

            
            
Suggest correction
Creating personal tab
Creating personal tab
You can edit any tab online and save it as your Personal.

You can edit, replace or remove any tab part or add personal notes – all changes will be seen only by you.

Personal tabs can be accessed anytime from any device, even offline.
Learn more »
Give kudos to tab author, rate the tab!
1 2 3 4 5
comments
print report bad tab
2 comments total.
0 reply
Jayser100 10 May 30, 2013 01:44 PM

Third bar last note should be fret 5 on the A string, not fret 4 on the D string. This threw me for ages when trying to play with my band until I realised by listening carefully to the original! If you don't get that right it throws the whole sound of the song off track.

0 reply
wrentboy 10 Oct 11, 2014 09:08 AM

I Can See Clearly Now

Nash, Johnny

Whoever tabbed this made quite a few mistakes, this is corrected now although simplified at points. T

Q Q E E E E
G||------------------------|
D||------------------------|
A||--5----L----------------|
E||---------------5--5-----|
Q Q E E E E Q Q E E E E
G||------------------------|------------------------|
D||------------------------|------------------------|
A||--5----L----------------|--5----L----------------|
E||---------------5--5-----|---------------5--5-----|

Q E E E E E E Q E Q E E E Q Q E E E E
|--------------------------|------------------------|------------------------|
|*----------------4--7--4--|--5----L-------4--5--7--|------------------------|
|*--5----L-----5-----------|------------------------|--5----L----------------|
|--------------------------|------------------------|---------------5--5-----|

Q Q E E E E Q E E E E E E Q E E E E E E
------------------------|-------------------------|-------------------------|
------------------------|----------------4--7--4--|--5----L-----------------|
--5----L----------------|--5----L-----5-----------|----------------2---5----|
---------------5--5-----|-------------------------|-------------3-----------|

H H E E E E E E Q Q E E E E E E
--------------------|-------------------------|-------------------------|
--------------------|-------------------------|----------------4--7--4--|
--------------------|-----7--------7----------|--5----L-----5-----------|
-5------------------|--5--------5-----7-------|-------------------------|

Q E Q E E E Q Q E E E E Q Q E E E E
------------------------|------------------------|------------------------|
--5----L-------4--5--7--|------------------------|------------------------|
------------------------|--5----L----------------|--5----L----------------|
------------------------|---------------5--5-----|---------------5--5-----|

W H E E E E Q Q E E E E
-------------------|-----------------------|------------------------|
-------------------|--5--------------------|------------------------|
--3----------------|-----------------------|--5----L----------------|
-------------------|-----------------------|---------------5--5-----|

Q Q E E E E H E E E E H E E E E
------------------------|-----------------------|-----------------------|
------------------------|-----------------------|--5--------------------|
--5----L----------------|--3--------------------|-----------------------|
------------------------|-----------------------|--------------5--5-----|

Q Q E E E E Q Q E E E E W
------------------------|-------------------------||-------------------|
------------------------|------------------------*||-------------------|
--5----L----------------|--5----L----------------*||--8----------------|
---------------5--5-----|---------------5--5------||-------------------|

W W W W
-------------------|-------------------|-------------------|-------------------|
-------------------|-------------------|--L----------------|-------------------|
--L----------------|--3----------------|-------------------|--8----------------|
-------------------|-------------------|-------------------|-------------------|

W W W W
-------------------|-------------------|-------------------|-------------------|
-------------------|--7----------------|--L----------------|--6----------------|
--L----------------|-------------------|-------------------|-------------------|
-------------------|-------------------|-------------------|-------------------|

W W W W
-------------------|-------------------|-------------------|--5----------------|
--5----------------|--6----------------|--5----------------|-------------------|
-------------------|-------------------|-------------------|-------------------|
-------------------|-------------------|-------------------|-------------------|

W W W
--4----------------|-------------------|--------------------||
-------------------|--7----------------|--L----------------*||
-------------------|-------------------|-------------------*||
-------------------|-------------------|--------------------||

guest
You may want to rate the tab now too:
select rating
Wanna post a correction for this tab? Suggest correction