Oops, an error
Loading. Please wait.

Born To Lose bass

2,333 views 21 this week
1 commentread comment
1 2 3 4 5
2 more votes to show rating
add to favorites
×
Save as Personal and add changes to this tab that will be seen only by you. Learn more ›
×
You can save this tab as Personal to edit and correct it or add notes. All changes will be seen only by you. Learn more »
launch autoscroll
font size
0
reset
guitar tuner
edit
Autoscroll
slow
fast
+/-
esc
set tempo
stop
Author
Difficulty
Verse
G----------------------------------------------|
D----------------------------------------------|
A--------------------5-5-5-5-5-5-5-5-----------|
E--5-5-5-5-5-5-5-5-----------------------------|

G----------------------------------------------|
D----------------------------------------------|
A--------------------5-5-5-5-5-5-5-5-----------|
E--5-5-5-5-5-5-5-5-----------------------------|

Chorus

G-------------------------------------|
D----------7-7-7-7-7-7-7-7-7-7--------|
A-7-7-7-7-----------------------------|
E-------------------------------------|

G----------------------------------------------|
D----------------------------------------------|
A----------------------------------------------|
E-1-1-1-1-3-3-3-3-5-5-5-5-5-5-5-5--------------|

G----------------------------------------------|
D----------------------------------------------|
A----------------------------------------------|
E-1-1-1-1-3-3-3-3-5-5-5-5-5-5-5-5--------------|

            
            
Suggest correction
Creating personal tab
Creating personal tab
You can edit any tab online and save it as your Personal.

You can edit, replace or remove any tab part or add personal notes – all changes will be seen only by you.

Personal tabs can be accessed anytime from any device, even offline.
Learn more »
Give kudos to tab author, rate the tab!
1 2 3 4 5
comments
print report bad tab
1 comment total.
0 reply
hiya77 563 Jul 02, 2013 09:51 AM

would be fine if it was all moved up 2 frets

guest
You may want to rate the tab now too:
select rating
Wanna post a correction for this tab? Suggest correction