Oops, an error
Loading. Please wait.

Its Not Enough chords

version 2
version 2

Whole song

  • Tab includes solo, filler, and chord placements.
487 views 6 this week
no commentswrite comment
1 2 3 4 5
3 more votes to show rating
add to favorites
×
Save as Personal and add changes to this tab that will be seen only by you. Learn more ›
×
You can save this tab as Personal to edit and correct it or add notes. All changes will be seen only by you. Learn more »
launch autoscroll
font size
0
reset
transpose
0
reset
display chords
guitar tuner
edit
Autoscroll
slow
fast
+/-
esc
set tempo
stop
Author
About this tab version
Tab includes solo, filler, and chord placements. Was this info helpful? Yes No
Strumming
There is no strumming pattern for this song yet. and get +5 IQ
It's Not Enough
Johnny Thunders
Whole Tab



Filler Tab Played By Walter Lure:

(Play from the open G string when the G chord is played, then play the B fret 3rd string when
The Em chord plays.)

E|---------------3-----------------------|
B|------------3-----5---------3----------|
G|--0-----/4--------------/4-----4\2--0--|
D|---------------------------------------|
A|---------------------------------------|
E|---------------------------------------|


[Verse]

                   G  Em
You can give me this
                   G  Em
You can give me that
                   G  Em
You can give me this
                   G  Em
You can give me that
              G  Em
It's not enough
               G  Em
Money's so green
               G  Em
So casually seen
               G  Em
It don't bother me
               G Em
It's not enough
               G Em
It's not enough


[Chorus]

D                 Em
Every town I go in
D                       Em
Every street I walk down
D                        
I can get anything I want
       A      D            Em
I just lay my cards.... down

                      G  Em
I can count on diamonds
            G  Em
Rubies as well
               G  Em
Oh big deal baby
                     G  Em
I still feel like hell
              G  Em
It's not enough
              G  Em
It's not enough
                 G  Em
Oh you can take it


[Solo]


E|------------------------------------------------------------------------------------------|
B|---------3---3-5----5v----5-3h5p3/8v----8-10-8-10-10b12----12-10-8-8v----5-3----3-5-3-5/8-|
G|-0----/4---4------------------------------------------------------------------------------|
D|------------------------------------------------------------------------------------------|
A|------------------------------------------------------------------------------------------|
E|------------------------------------------------------------------------------------------|


E|---------------10------------------------------------------------------------10-10b11----10b11v-|
B|-10-8-10b12-------10b12b10r8----8----10-8-10-8-10-10b12b10-8----10b12-10-8-8--------------------|
G|------------------------------------------------------------------------------------------------|
D|------------------------------------------------------------------------------------------------|
A|------------------------------------------------------------------------------------------------|
E|------------------------------------------------------------------------------------------------|


E|-10b11b10-8----------------------10---------------------------------------|
B|------------10b12r8---10-8-10b12----10b12b10r8---10-8-10b12-10b12-8v----8-|
G|--------------------9--------------------------9--------------------------|
D|--------------------------------------------------------------------------|
A|--------------------------------------------------------------------------|
E|--------------------------------------------------------------------------|

                        
E|--------------------------------------------------|
B|---8---8-10-8-8v------8----/8-------0-------------|
G|-9---9--------------9---------9-7-0---7-0-2b3r0---|
D|------------------------------------------------1-|
A|--------------------------------------------------|
E|--------------------------------------------------|

(Or play this for the very last part of the solo starting with the slide)

E|-1/3-----------------------|
B|-----5-3-----3-------------|
G|-----------4---------------|
D|---------5-----5-7b9b7r5---|
A|-------------------------7-|
E|---------------------------


[Chorus]

D                Em
Every town I go in
D                      Em
Every street I walk down
D                    
I can get anything I want
       A      D            Em
I just lay my cards.... down


[Verse]
                      G  Em
I can count on diamonds
             G  Em
Rubies as well
               G  Em
Oh big deal baby
                     G  Em
I still feel like hell
              G  Em
It's not enough
              G  Em
It's not enough
              G  Em
It's not enough



************************************

| h  Hammer-on
| p  Pull-off
| r  Release
| b  Bend
| /  Slide up
| \  Slide down

************************************

            
            
Suggest correction
Creating personal tab
Creating personal tab
You can edit any tab online and save it as your Personal.

You can edit, replace or remove any tab part or add personal notes – all changes will be seen only by you.

Personal tabs can be accessed anytime from any device, even offline.
Learn more »
Give kudos to tab author, rate the tab!
1 2 3 4 5
comments
print report bad tab
guest
You may want to rate the tab now too:
select rating
Wanna post a correction for this tab? Suggest correction