Oops, an error
Loading. Please wait.

Pagtatapat tab

104 views 3 this week
no commentswrite comment
1 2 3 4 5
2 more votes to show rating
add to favorites
×
Save as Personal and add changes to this tab that will be seen only by you. Learn more ›
×
You can save this tab as Personal to edit and correct it or add notes. All changes will be seen only by you. Learn more »
launch autoscroll
font size
0
reset
how to read this tab
guitar tuner
edit
Autoscroll
slow
fast
+/-
esc
set tempo
stop
This is a tab of Sir Kakoy's guitar parts for this song.
This may not be 100% correct but it sounds really close
You have to listen to the song to perfect the timing on certain parts.
This is my first time to make a tab hope you enjoy it

Mabuhay ang mga musikerong pinoy!

Intro

************************************Part 1**********************************
e-----------------------|
B-----------------------|
G--------------6-7-6----|
D----------6-9-------9~-|  (3x)
A----x-5-8--------------|
E-----------------------|

e---6-7--------------------------|
B-------6-7---------------6-6b7--|
G-----------6-7-------6-7--------|
D---------------8-9-8------------|
A--------------------------------|
E--------------------------------|

*********************************Repeat Part 1******************************

Part 2
e---10s11--8--8---8--|          e---7--9-10-11--7--9-10b11--|
B----------8--10--8--|          B---------------------------|
G---10s11--9--8---9--| (3X)     G---------------------------|
D--------------------|          D---------------------------|
A--------------------|          A---------------------------|
E--------------------|          E---------------------------|

e---7--9-10-11---9h10p9-7---|
B---------------------------|
G---------------------------|
D---------------------------|
A---------------------------|
E---------------------------|

************************************Verse 1**********************************
e-------------------|
B-----------4-------|
G---8---5---4---3---|  This is strummed like comping
D---7---4---3---2---|  these are pretty much the chords for the verses in 
A---x---x---4---x---|  this song
E---7---4-------2---|

*********************************Refrain 1**********************************
e------------                            --------------|
B------------                            --------------|
G---12--11---                            ---9----------|
D---11--10---  (tremolo pick this part)  ---8-(break)--|
A---x---x----                            ---x----------|
E---11--10---                            ---8----------|

e-7---------5s6---------------------|
B---7-----------7-6-5--------6-10---|
G-----8-7-6----------------7--------|
D----------------------6s8----------|
A-----------------------------------|
E-----------------------------------|

******************************Repeat Verse 1********************************

Fill on second verse
e-----------------------------|
B-------------8-7-6-----------|
G-------------------8-7-7b8---|
D---5-6-7-8-9-----------------|
A-----------------------------|
E-----------------------------|

**********************************Refrain 2*********************************
e------------                                 ----11--9-9---------------|
B------------                                 ----12------12--9--12--9--|
G---12--11---                                 ----9-------9---9--9---9--|
D---11--10--- tremolo pick this part, then    ----9---------------------|
A---x---x----                                 --------------------------|
E---11--10---                                 --------------------------|

e----------------------|
B---11-11-11--9-9--7---|
G---x--x--x---x-x--x---|
D---11-11-11--9-9--8---|
A----------------------|
E----------------------|

*************************************Chorus**********************************
e---7---4---4---2---|
B---7---4---5---2---|
G---8---5---4---3---|
D---9---4---6---2---|
A---9---6---4---4---|
E---7---4---x---2---|

Repeat Intro Part 1
Repeat Verse
Repeat Refrain 2

***********************************Bridge***********************************
e---------------|      
B---0--2--4--4--|      
G------------2--|(tremolo pick this part)     
D---------------|     
A---------------|    
E---------------|   

e------------------------------|
B---4-------11-11-11--9-9--7---|
G---4-------x--x--x---x-x--x---|
D---3-------11-11-11--9-9--8---|
G---4--------------------------|
E------------------------------|

*************************************Solo************************************

e------------------------------------2---|
B-------2s4-4-----2b-----h1b-----2-4-----|
G---1-4-------1h4----1h4-----1-1---------|
D----------------------------------------|
A----------------------------------------|
E----------------------------------------|

e---------4-7-7----9-7-7----7-7s6-6-7---------|
B---5-7-5--------9--------9-----------9b10-7--|
G---------------------------------------------|
D---------------------------------------------|
A---------------------------------------------|
E---------------------------------------------|

e------------------------12--------------|
B------------14b16-14b16----14b16r1412---|
G------11-11-----------------------------|
D--s13-----------------------------------|
A----------------------------------------|
E----------------------------------------|

e-----------------------------------------|
B------12-14-12b13------------------------|
G---13-------------13-11----13b-11-11-----|
D------------------------13-----------13--|
A-----------------------------------------|
E-----------------------------------------|

e-----------------9------------9---------|
B------9-9-7-----------12-----------12---|
G---s8--------s10---10-----s10---10------|
D----------------------------------------|
A----------------------------------------|
E----------------------------------------|

e--------------------------|
B-------11-11-11--9-9--7---|
G-------x--x--x---x-x--x---|
D-------11-11-11--9-9--8---|
G--------------------------|
E--------------------------|

**************************Repeat Chorus once then this,**********************

e---7---4---4---2--|(tremolo picking)--7---7-6-6----------|
B---9---4---5---2--|---9-8-7-6---------5---------9-7---7--|
G---8---5---4---3--|---8-8-8-8---------4------------------|
D---7---4---6---2--|-------------------6------------------|
A---9---6---4---4--|-------------------4------------------|
E---7---4---x---2--|-------------------x------------------|

e---------------6-9-9---6h7----------------|
B-------------7---------------9-9p7--------|
G---------6-8------------------------8-8---|
D-------8----------------------------------|
A---6-9------------------------------------|
E------------------------------------------|

e---4--------------------------------|
B---5---11-11-11--9-9--7-7--5---7----|
G---4---x--x--x---x-x--x-x--x---x----|
D---6---11-11-11--9-9--8-8--6---8----|
A---4--------------------------------|
E---x--------------------------------|

e---------------------------12---|
B----11-11-11--9-9--7-7--5--x----|
G----x--x--x---x-x--x-x--x--11---|
D----11-11-11--9-9--8-8--6-------|
A--------------------------------|
E---------------------------------|

**************************Repeat Intro Part 2 then***************************

e---10s11---7-----7------------||
B---x--x----7-----7--(break)---||
G---10s11---8-----8------------||
D-----------------7------------||
A------------------------------||
E------------------------------||

*************************************END*************************************

            
            
Suggest correction
Creating personal tab
Creating personal tab
You can edit any tab online and save it as your Personal.

You can edit, replace or remove any tab part or add personal notes – all changes will be seen only by you.

Personal tabs can be accessed anytime from any device, even offline.
Learn more »
Give kudos to tab author, rate the tab!
1 2 3 4 5
comments
print report bad tab
guest
You may want to rate the tab now too:
select rating
Wanna post a correction for this tab? Suggest correction