Oops, an error
Loading. Please wait.

Handog tab

version 2
version 2

Whole song

Interactive

2,120 views 12 this week
no commentswrite comment
1 2 3 4 5
3 more votes to show rating
add to favorites
×
Save as Personal and add changes to this tab that will be seen only by you. Learn more ›
×
You can save this tab as Personal to edit and correct it or add notes. All changes will be seen only by you. Learn more »
launch autoscroll
font size
0
reset
how to read this tab
guitar tuner
edit
Autoscroll
slow
fast
+/-
esc
set tempo
stop
Author
Song: Handog
Artist: Join The Club
Tabbed by: June Robert G. Corpuz
email:junerobert_5@yahoo.com

Tuning: eBGDAE

Intro :

Guitar 1-Silent!

Guitar 2

e|-------------------------------------------------------------------|
B|--------3/5-----------------------------3/5------------------------|
G|--4-5-------7-5-4-5-7---5/7-5-4---4-5-5-----7-5-4-5-7---5/7-5-4-5--|
D|------7---------------5---------7---------------------5------------|
A|-------------------------------------------------------------------|
E|-------------------------------------------------------------------|

Guitar 1 and Guitar 2

e|------------|
B|------------|
G|------------|
D|--77777777--|
A|--77777777--|
E|--55555555--|

Verse 1

Guitar 1

e|--------------------------------------------------------------|
B|--------------------------------------------------------------|
G|-------------------------------------------------99----99-----|
D|--77777777777777777777--77777777777777777777--99-99-99-99-7~--|
A|--77777777777777777777--77777777777777777777--99-77-99-77-7~--|
E|--55555555555555555555--55555555555555555555--77----77----5~--|

Guitar 2

e|-----------|
B|-4/6-4-2-4-|
G|-----------|
D|-----------|  x4
A|-----------|
E|-----------|

Then..

Guitar 1 and Guitar 2

e|------------------|
B|------------------|
G|-----99----99-----|
D|--99-99-99-99-7~--|
A|--99-77-99-77-7~--|
E|--77----77----5~--|

Verse 1 Lyrics:

Parang kailan lang
Ang mga pangarap ko'y kay hirap abutin
Dahil sa inyo
Napunta ako sa aking nais marating
Nais ko kayong pasalamatan
Kahit man lamang isang awitin

Verse 2

Guitar 1

e|----------------------------------------------|
B|----------------------------------------------|
G|----------------------------------------------|
D|--77777777777777777777--77777777777777777777--|
A|--77777777777777777777--77777777777777777777--|
E|--55555555555555555555--55555555555555555555--|

Guitar 2

e|-----------|
B|-4/6-4-2-4-|
G|-----------|
D|-----------|  x8
A|-----------|
E|-----------|

Then

Guitar 1 and Guitar 2

e|-------------------------|
B|-------------------------|
G|-----99----99------------|
D|--99-99-99-99-777777777--|
A|--99-77-99-77-777777777--|
E|--77----77----555555555--|

Verse 2 Lyrics:

Parang kailan lang
Halos ako ay magpalimos sa lansangan
Dahil sa inyo
Ang aking tiyan at ang bulsa'y nagkalaman
Kaya't itong awiting aking inaawit
Nais ko'y kayo ang handogan

Chorus

Guitar 1 and Guitar 2

e|------------------------------------|
B|------------------------------------|
G|-------------------------44-77-99~--|
D|-5~-5~-4~-4~-5~-5~-4~-4~-44-77-99~--|
A|-5~-5~-4~-4~-5~-5~-4~-4~-22-55-77~--|
E|-3~-3~-2~-2~-3~-3~-2~-2~------------|

Chorus Lyrics:

Tatanda at lilipas din ako
Ngunit mayrong awiting
Iiwanan sa inyong alaala
Dahil minsan, tayo'y nagkasama.

Verse 3

Guitar 1

e|----------------------------------------------|
B|----------------------------------------------|
G|----------------------------------------------|
D|--77777777777777777777--77777777777777777777--|
A|--77777777777777777777--77777777777777777777--|
E|--55555555555555555555--55555555555555555555--|

Guitar 2

e|-----------|
B|-4/6-4-2-4-|
G|-----------|
D|-----------|  x8
A|-----------|
E|-----------|

Then

Guitar 1 and Guitar 2

e|-------------------------|
B|-------------------------|
G|-----99----99------------|
D|--99-99-99-99-777777777--|
A|--99-77-99-77-777777777--|
E|--77----77----555555555--|

Verse 3 Lyrics: 

Parang kailan lang
Ang mga awitin ko ay ayaw pakinggan
Dahil sa inyo
Narinig ang isip ko at naintindihan
Dahil dito'y ibig ko kayong ituring
Na matalik kong kaibigan

Chorus

Guitar 1 and Guitar 2

e|------------------------------------|
B|------------------------------------|
G|-------------------------44-77-99~--|
D|-5~-5~-4~-4~-5~-5~-4~-4~-44-77-99~--|
A|-5~-5~-4~-4~-5~-5~-4~-4~-22-55-77~--|
E|-3~-3~-2~-2~-3~-3~-2~-2~------------|

Chorus Lyrics:

Tatanda at lilipas din ako
Ngunit mayrong awiting
Iiwanan sa inyong alaala
Dahil minsan, tayo'y nagkasama.

Adlib

e|-------------------------------------------------------------------------|
B|--------7/9-------------------------9------------------------------------|
G|--5-6-------11-10-8-------8-8-10-10---11-10-8-8----8---------------------|
D|------6-------------10-11-----------------------11---10-11-10-11-8-10-6--|
A|-------------------------------------------------------------------------|
E|-------------------------------------------------------------------------|

e|------------------------------9-8-6-------------------------------11-8-8-|
B|------6-7-6---6/4---------6-7-------6-----6---9-6---7/9-7-6---7/9--------|
G|--6-8-------6-----5-6-5-6-------------6-8---6-----8---------8------------|
D|-------------------------------------------------------------------------|
A|-------------------------------------------------------------------------|
E|-------------------------------------------------------------------------|

Chorus

Guitar 1 and Guitar 2

e|------------------------------------|
B|------------------------------------|
G|-------------------------44-77-99~--|
D|-5~-5~-4~-4~-5~-5~-4~-4~-44-77-99~--|
A|-5~-5~-4~-4~-5~-5~-4~-4~-22-55-77~--|
E|-3~-3~-2~-2~-3~-3~-2~-2~------------|

Chorus Lyrics:

Tatanda at lilipas din ako
Ngunit mayrong awiting
Iiwanan sa inyong alaala
Dahil minsan, tayo'y nagkasama.

Chorus

Guitar 1 and Guitar 2

e|------------------------------------|
B|------------------------------------|
G|-------------------------44-77-99~--|
D|-5~-5~-4~-4~-5~-5~-4~-4~-44-77-99~--|
A|-5~-5~-4~-4~-5~-5~-4~-4~-22-55-77~--|
E|-3~-3~-2~-2~-3~-3~-2~-2~------------|

Chorus Lyrics:

Tatanda at lilipas din ako
Ngunit mayrong awiting
Iiwanan sa inyong alaala
Dahil minsan, tayo'y nagkasama.

                                 ~End~






            
            
Suggest correction
Creating personal tab
Creating personal tab
You can edit any tab online and save it as your Personal.

You can edit, replace or remove any tab part or add personal notes – all changes will be seen only by you.

Personal tabs can be accessed anytime from any device, even offline.
Learn more »
Give kudos to tab author, rate the tab!
1 2 3 4 5
comments
print report bad tab
guest
You may want to rate the tab now too:
select rating
Wanna post a correction for this tab? Suggest correction