Oops, an error
Loading. Please wait.

Nobela tab

version 4
version 4

Whole song

Interactive

3,165 views 48 this week
no commentswrite comment
1 2 3 4 5
x 4
add to favorites
×
Save as Personal and add changes to this tab that will be seen only by you. Learn more ›
×
You can save this tab as Personal to edit and correct it or add notes. All changes will be seen only by you. Learn more »
launch autoscroll
font size
0
reset
how to read this tab
guitar tuner
edit
Autoscroll
slow
fast
+/-
esc
set tempo
stop
Author
Difficulty
try lang po :D
Shiki25Tohno
(c) sa nag upload ng lyrics, sa Join The Club, sa gitara ko, at pc ko :D

Standard Tuning

Intro:
       Eb           G  
E|--------------------------||
B|--------------------------||
G|-3-/-8-8---8-10-8-7-------||
D|--------------------8-8---||
A|--------------------------||
E|--------------------------||
       Eb           G               Ab
E|------------------------------------||
B|------------------11-8--------------||
G|-3-/-8-8---8-10-8------------8-/-4--||
D|-----------------------10-10--------||
A|------------------------------------||
E|------------------------------------||

Verse 1:

E|---------------------------------||
B|---------------------------------||
G|7-h-8--10----7-h-8---10----------||
D|---------------------------------||
A|---------------------------------||
E|---------------------------------||

               Eb
Ngumiti kahit na napipilitan
Ab                 Eb
Kahit pa sinasadya
Ab               Eb            
Mo akong masaktan paminsan-minsan
Ab                Bb
Bawat sandali na lang

Ab           Eb
Tulad mo ba akong nahihirapan
Ab              Eb
Lalo't naiisip ka
Ab            Eb
Di ko na kaya pa na kalimutan
Ab                Eb
Bawat sandali na lang

Chorus:
*paki pick nalang hanggat satisfied katamad itype ihh :D sorry*

E|---------------------------------||
B|-11------------------------------||
G|---------12-------10-------------||
D|---------------------------------||
A|---------------------------------||
E|---------------------------------||

    Ab          Bb
At aalis magbabalik 
       Eb        C
At uuliting sabihin 
       Ab        Bb
Na mahalin ka't sambitin 
        Gm       C
Kahit muling masaktan 
        Ab (magbabad :D)
Sa pag-alis 
ako'y magbabalik 
sana naman - (Bb)

*Dulo*

E|---------------------------------||
B|-11------------------------------||
G|---------12-------10-------------||
D|---------------------------------||
A|---------------------------------||
E|---------------------------------||

E|----------------------------------------------||
B|-11(5 times)-13-13-15-15-16-16-15-16(2 times)-||
G|----------------------------------------------||
D|----------------------------------------------||
A|----------------------------------------------||
E|----------------------------------------------||


Verse 2:

E|---------------------------------||
B|---------------------------------||
G|7-h-8--10----7-h-8---10----------||
D|---------------------------------||
A|---------------------------------||
E|---------------------------------||

             Eb
Sa isang marikit na alaala'y
Ab                   Eb
Pangitaing kay ganda
Ab                  Eb
Sana nga'y pagbigyan

Na ng tadhana
Ab                    Bb
Bawat sandali na lang
Ab                  Eb    
Sumabay sa biglang pagkabahala't
Ab                   Eb
Lumabis sa pagtataka
Ab            Eb       
Tunay na pagsintang di alintana
Ab                 Bb
Bawat sandali na lang 

Chorus:
Hanggang halos mag dulo ng chorus :D
E|---------------------------------||
B|-11------------------------------||
G|---------12-------10-------------||
D|---------------------------------||
A|---------------------------------||
E|---------------------------------||
    Ab          Bb
At aalis magbabalik 
       Eb        C
At uuliting sabihin 
       Ab        Bb
Na mahalin ka't sambitin 
        Gm       C
Kahit muling masaktan 
        Ab (magbabad :D)
Sa pag-alis 
ako'y magbabalik 
sana naman - (Bb)

*Dulo*

E|---------------------------------||
B|-11------------------------------||
G|---------12-------10-------------||
D|---------------------------------||
A|---------------------------------||
E|---------------------------------||

E|----------------------------------------------||
B|-11(5 times)-13-13-15-15-16-16-15-16(2 times)-||
G|----------------------------------------------||
D|----------------------------------------------||
A|----------------------------------------------||
E|----------------------------------------------||

Solo:
(C# - Bb)


E|-------------------------------------------------||
B|----------------7-/-9-6---6------6-6-6-7-6-------||
G|-6-8-/-10--8-6----------8----8-------------------||(2 times po :D)
D|-------------------------------8-----------8-----||
A|-------------------------------------------------||
E|-------------------------------------------------||

(Heto yung mag iingay na =D)

         F#                   C#                                  F#
E|-------------6--------------------------------------------------9----------||
B|-------6---9---9----------------------------------------------9------------||
G|-6-8-6-----------8-6-5-6-/-10---10-10-10-11-13-10---10-10-10-11------------||
D|---------------------------------------------------------------------------||
A|---------------------------------------------------------------------------||
E|---------------------------------------------------------------------------||
         F#         Ab
E|---6--------------------------------------------------||
B|-9---9------------------------------------------------||
G|-------8-6-5-6-/-10-10-10-8-8-6-5---------------------||
D|--------------------------------8-6-------------------||
A|------------------------------------------------------||
E|------------------------------------------------------||

Verse 3:

*Note: Iba na tono niya, parang nag 1 whole step down*

    F#          C#
Ngumiti kahit na napipilitan 
F#              C#
Kahit pa sinasadya
F#             C# 
Mo akong masaktan paminsan-minsan 
(Palm mute .... tas tanggalin palm mute :D)
F#                Ab
Bawat sandali na lang

*I-pick niyo nalang :D katamad ilagay ihhh
hanggang sa matapos na po ito :D*

E|---------------------------------||
B|-9-------------------------------||
G|---------10--------8-------------||
D|---------------------------------||
A|---------------------------------||
E|---------------------------------||
     F#          Ab
At aalis magbabalik
     Fm         Bb 
At uulitin sa muli
     F#          Ab 
Mamahalin kasambitib
      Fm        Bb 
Kahit muli masaktan 
     F#
Sa pag-alis 
Ako'y magbabalik 
 
Sana naman -(Ab)


            
            
Suggest correction
Creating personal tab
Creating personal tab
You can edit any tab online and save it as your Personal.

You can edit, replace or remove any tab part or add personal notes – all changes will be seen only by you.

Personal tabs can be accessed anytime from any device, even offline.
Learn more »
comments
print report bad tab
guest
You may want to rate the tab now too:
select rating
Wanna post a correction for this tab? Suggest correction