Oops, an error
Loading. Please wait.

Blaze Of Glory bass

version 1
version 1

Whole song

Interactive

1,318 views 1 this week
no commentswrite comment
1 2 3 4 5
x 8
add to favorites
×
Save as Personal and add changes to this tab that will be seen only by you. Learn more ›
×
You can save this tab as Personal to edit and correct it or add notes. All changes will be seen only by you. Learn more »
launch autoscroll
font size
0
reset
guitar tuner
edit
Autoscroll
slow
fast
+/-
esc
set tempo
stop
Author
Difficulty
Title: Blaze of Glory
Artist: Jon Bon Jovi
Album: Blaze of Glory
Tuning: 5 String Standard (BEADG)
Tab Author: Pearce Hamblin (The Bass Diaries)

Intro
G|--------|--------|--------|--------|--------|--------|--------|--------|--------|
D|--------|--------|--------|--------|--------|--------|--------|--------|--------|
A|--------|--------|--------|--------|--------|--------|--------|--------|--------|
E|--------|--------|--------|--------|--------|--------|--------|--------|--------|
B|--------|--------|--------|--------|--------|--------|--------|--------|-3------|


G|--------|--------|--------|--------|--------|--------|--------|--------|--------|
D|--------|--------|--------|--------|--------|--------|--------|--------|--------|
A|--------|--------|--------|--------|--------|--------|--------|--------|--------|
E|--------|--------|--------|--------|--------|--------|--------|--------|--------|
B|--------|--------|--------|-3------|--------|--------|--------|-3------|-3------|

                                                       Verse 1
G|--------|--------|--------|--------|--------|--------|--------|--------|--------|
D|--------|--------|--------|--------|--------|--------|--------|--------|--------|
A|--------|--------|--------|--------|--------|--------|--------|--------|--------|
E|--------|--------|--------|--------|--------|--------|--------|--------|--------|
B|-3------|-3------|-3------|-3------|-3------|--------|-3------|--------|--------|


G|--------|--------|--------|--------|--------|--------|--------|--------|--------|
D|--------|--------|--------|--------|--------|-3------|--------|--------|--------|
A|--------|--------|--------|--------|--------|--------|--------|-3------|--------|
E|--------|--------|--------|--------|--------|--------|--------|--------|--------|
B|--------|--------|--------|--------|--------|--------|--------|--------|--------|


G|--------|--------|--------|--------|--------|--------|--------|--------|--------|
D|-5------|--------|--------|--------|--------|--------|--------|--------|--------|
A|--------|--------|-5------|--------|--------|--------|--------|--------|--------|
E|--------|--------|--------|--------|--------|--------|--------|--------|--------|
B|--------|--------|--------|--------|-3------|-3------|-3------|--------|-3------|

                            Verse 2
G|--------|--------|--------|--------|---------------------------------|--------|
D|--------|--------|--------|--------|---------------------------------|--------|
A|--------|--------|--------|-5------|-------------------------0---5---|-3------|
E|--------|--------|--------|--------|---------------------------------|--------|
B|-3------|-3------|--------|--------|---------------------------------|--------|


G|---------------------------------|
D|-------------------------0---3---|
A|---------------------------------|
E|---------------------------------|
B|---------------------------------|


G|--------|------------------------------|--------|---------------------------------|
D|-5------|------------------------------|--------|-------------------------0---2---|
A|--------|-------------------------3----|-5------|---------------------------------|
E|--------|------------------------------|--------|---------------------------------|
B|--------|------------------------------|--------|---------------------------------|


G|--------|---------------------------------|--------|---------------------|--------|
D|-3------|-------------------------3---5---|--------|-----------0----3----|-5------|
A|--------|---------------------------------|-3------|---------------------|--------|
E|--------|---------------------------------|--------|---------------------|--------|
B|--------|---------------------------------|--------|---------------------|--------|

                                                          Chorus 1
G|---------------------------------|--------|-------------|-------------|------------------------|
D|---------------------------------|--------|-------------|-------------|------------------------|
A|-----------------------------3---|-5------|-------12\\\\|-------------|-----------0----3---4---|
E|---------------------------------|--------|-------------|-3------3----|------3-----------------|
B|---------------------------------|--------|-------------|-------------|------------------------|


G|---------------------|--------------------|------------------|--------------------|
D|---------------------|--------------------|------------------|--------------------|
A|-5-----5----0--------|--------------------|------------------|--------------------|
E|---------------------|------------1-------|-3-----3-----3----|-------3-------1----|
B|----------------3----|------3---------3---|------------------|-----------3--------|


G|------------------|---------------------------|------------------|---------------------------|
D|------------------|---------------------------|------------------|-----------5---------------|
A|------------------|------0----3---4---5---0---|------------------|------5--------0---3---4---|
E|------------------|---------------------------|-3-----3-----3----|---------------------------|
B|-3-----3-----3----|---------------------------|------------------|---------------------------|


G|------------------|------------------------|------------------|---------------------------|
D|------------------|------------------------|------------------|---------------------------|
A|-5-----5-----5----|------5-----0---5---0---|-3-----3-----3----|------3----3---3---3---5---|
E|------------------|------------------------|------------------|---------------------------|
B|------------------|------------------------|------------------|---------------------------|


G|------------------|------------------------|--------|--------|--------|--------|
D|------------------|------------------------|--------|--------|--------|--------|
A|------------------|------------------------|--------|--------|--------|--------|
E|-3-----3-----3----|------3----3-------1----|--------|--------|--------|--------|
B|------------------|---------------3--------|-3------|--------|-3------|--------|

Verse 3
G|--------|---------------------------------|--------|---------------------------------|
D|--------|---------------------------------|--------|-------------------------0---3---|
A|-5------|-------------------------0---5---|-3------|---------------------------------|
E|--------|---------------------------------|--------|---------------------------------|
B|--------|---------------------------------|--------|---------------------------------|


G|--------|------------------------------|--------|---------------------------------|
D|-5------|------------------------------|--------|-------------------------0---2---|
A|--------|-------------------------3----|-5------|---------------------------------|
E|--------|------------------------------|--------|---------------------------------|
B|--------|------------------------------|--------|---------------------------------|


G|--------|------------------------------|--------|---------2----0---------|--------|
D|-3------|-------------------------5----|--------|-------------------3----|-5------|
A|--------|------------------------------|-3------|------------------------|--------|
E|--------|------------------------------|--------|------------------------|--------|
B|--------|------------------------------|--------|------------------------|--------|

                                                  Chorus 2
G|------------------------------|--------|--------|-------------|--------------------|
D|------------------------------|--------|--------|-------------|--------------------|
A|-------------------------3----|-5------|--------|-------------|------------3---4---|
E|------------------------------|--------|--------|-3------3----|------3-------------|
B|------------------------------|--------|--------|-------------|--------------------|


G|---------------------|---------------------------|------------------|------------------------|
D|---------------------|---------------------------|------------------|------------------------|
A|-5-----5----0---5----|------5----5---5---3---0---|------------------|------------------------|
E|---------------------|---------------------------|-3-----3-----3----|------3----3-------1----|
B|---------------------|---------------------------|------------------|---------------3--------|


G|------------------|---------------------------|------------------|------------------------|
D|------------------|---------------------------|------------------|-----------5---0---3----|
A|------------------|------0----3---4---5---0---|------------------|------------------------|
E|------------------|---------------------------|-3-----3-----3----|------3-----------------|
B|-3-----3-----3----|---------------------------|------------------|------------------------|


G|------------------|------------------------|------------------|---------------------------|
D|------------------|------------------------|------------------|---------------------------|
A|-5-----5-----5----|------5-----0---5---0---|-3-----3-----3----|-----3---------------------|
E|------------------|------------------------|------------------|---------1-----1---1---2---|
B|------------------|------------------------|------------------|---------------------------|


G|------------------|--------------------|--------|--------|--------|-------------|
D|------------------|--------------------|--------|--------|--------|-------------|
A|------------------|--------------------|--------|--------|--------|-------------|
E|-3-----3-----3----|-------3-------1----|--------|--------|--------|-------------|
B|------------------|-----------3--------|-3------|--------|--------|-3-----------|

                                                    Solo
G|-------------|--------|-------------|-------------|------------------|---------------------------|
D|-------------|--------|-------------|-------------|------------------|---------------------------|
A|-------------|--------|-------------|-------------|------------------|-------------------3---4---|
E|-------------|--------|-------------|-------------|-3-----3-----3----|------3----3---3-----------|
B|-3-----------|--------|-3-----------|-------------|------------------|---------------------------|


G|---------------------|------------------------|------------------|---------------------------|
D|---------------------|------------------------|------------------|---------------------------|
A|-5-----5----0--------|------------------------|------------------|-----------0---0---3---4---|
E|---------------------|----------------1---2---|-3-----3-----3----|------3--------------------|
B|----------------3----|------3----3------------|------------------|---------------------------|


G|---------------------|---------------------------------|------------------|---------------------------|
D|---------------------|---------------------------------|------------------|---------------------------|
A|-5-----5----0---5----|-----0---5---0---5---5---3---0---|------------------|-------------------3---4---|
E|---------------------|---------------------------------|-3-----3-----3----|------3----3---3-----------|
B|---------------------|---------------------------------|------------------|---------------------------|


G|------------------|---------------------------|------------------|---------------------|
D|------------------|---------------------------|------------------|---------------------|
A|-5-----5-----5----|------5---0---5----3---0---|------------------|---------------------|
E|------------------|---------------------------|-1-----1-----1----|------1----1----1----|
B|------------------|---------------------------|------------------|---------------------|


G|---------------------|--------|--------|--------|--------|--------|--------|--------|
D|---------------------|--------|--------|--------|--------|--------|--------|--------|
A|---------------------|--------|--------|--------|--------|--------|-5------|--------|
E|-3----3----3----3----|-3------|--------|--------|--------|--------|--------|--------|
B|---------------------|--------|-3------|--------|-3------|--------|--------|--------|

                   Verse 4
G|--------|--------|--------|--------|--------|--------|--------|--------|--------|
D|--------|--------|--------|--------|--------|--------|--------|--------|--------|
A|--------|--------|--------|--------|--------|--------|--------|--------|--------|
E|--------|--------|--------|--------|--------|--------|--------|--------|--------|
B|-3------|--------|--------|--------|--------|--------|--------|--------|--------|


G|--------|--------|--------|--------|--------|--------|--------|--------|--------|
D|--------|-3------|--------|--------|--------|-5------|--------|--------|--------|
A|--------|--------|--------|-3------|--------|--------|--------|-5------|--------|
E|--------|--------|--------|--------|--------|--------|--------|--------|--------|
B|--------|--------|--------|--------|--------|--------|--------|--------|--------|

                                                                Chorus 3
G|--------|--------|--------|--------|--------|--------|--------|------------------|
D|--------|--------|--------|--------|--------|--------|--------|------------------|
A|--------|--------|--------|--------|--------|--------|--------|------------------|
E|-3------|--------|--------|--------|--------|--------|--------|-3-----3-----3----|
B|--------|--------|-3------|--------|--------|--------|--------|------------------|


G|------------------------|------------------------|---------------------------|---------------------|
D|------------------------|------------------------|---------------------------|---------------------|
A|----------------3---4---|-5----0---5----0--------|-----------5---5---3---0---|---------------------|
E|-3----3----3------------|------------------------|---------------------------|-3-----3--------3----|
B|------------------------|-------------------3----|------3--------------------|------------3--------|


G|---------------------------|------------------|---------------------------|------------------|
D|---------------------------|------------------|---------------------------|------------------|
A|---------------------------|------------------|------0----3---4---5---0---|------------------|
E|------3-------3-------1----|------------------|---------------------------|-3-----3-----3----|
B|----------3-------3--------|-3-----3-----3----|---------------------------|------------------|


G|---------------------------|------------------|------------------------|------------------|
D|---------------------------|------------------|------------------------|------------------|
A|-------------------3---4---|-5-----5-----5----|------5-----0---5---0---|-3-----3-----3----|
E|------3----3---3-----------|------------------|------------------------|------------------|
B|---------------------------|------------------|------------------------|------------------|

                                                                               Outro
G|-0---2---2---0----------------|------------------|---------------------------|------------------|
D|------------------------------|------------------|---------------------------|------------------|
A|------------------0---3---5---|------------------|-----------0---0---3---4---|-5-----0----------|
E|------------------------------|-3-----3-----3----|------3--------------------|------------------|
B|------------------------------|------------------|---------------------------|-------------3----|


G|---------------------------|---------------------|---------2----0---------|---------------------|
D|---------------------------|---------------------|------------------------|---------------------|
A|---------------0---5---0---|-3-----3----0---3----|-----3------------------|---------------------|
E|---------------------------|---------------------|-------------------10\\\|\3-----3----1---3----|
B|------3--------------------|---------------------|------------------------|---------------------|


G|------------------------|---------------------|------------------------|---------------------|
D|------------------------|---------------------|------------------------|---------------------|
A|------------------------|---------------------|----------------3---4---|-5-----5----0---5----|
E|------3----1---3---1----|---------------------|-----------5------------|---------------------|
B|------------------------|-3-----3----1---3----|------3-----------------|---------------------|


G|------------------------------|------------------------|-0---2---2---0----0-----------|
D|------------------------------|------------------------|----------------------3-------|
A|------5---0---5---5---0---5---|-3-----3----0---3---3---|--------------------------0---|
E|------------------------------|------------------------|------------------------------|
B|------------------------------|------------------------|------------------------------|


G|------------------|--------------------|--------|--------|--------|--------|--------|
D|------------------|--------------------|--------|--------|--------|--------|--------|
A|------------------|--------------------|--------|--------|--------|--------|--------|
E|-3-----3-----3----|-------3-------1----|--------|--------|--------|--------|--------|
B|------------------|-----------3--------|-3------|--------|--------|--------|--------|


G|--------|--------|--------|
D|--------|--------|--------|
A|--------|--------|--------|
E|--------|--------|--------|
B|--------|--------|--------|



            
            
Suggest correction
Creating personal tab
Creating personal tab
You can edit any tab online and save it as your Personal.

You can edit, replace or remove any tab part or add personal notes – all changes will be seen only by you.

Personal tabs can be accessed anytime from any device, even offline.
Learn more »
comments
print report bad tab
guest
You may want to rate the tab now too:
select rating
Wanna post a correction for this tab? Suggest correction