Oops, an error
Loading. Please wait.
We have Chord Pro version of Never Say Die.
It's the closest thing you can get to the original song and it has interactive parts. Check out the tab »
×
103 views 6 this week
1 commentread comment
1 2 3 4 5
3 more votes to show rating
add to favorites
×
Save as Personal and add changes to this tab that will be seen only by you. Learn more ›
×
You can save this tab as Personal to edit and correct it or add notes. All changes will be seen only by you. Learn more »
launch autoscroll
font size
0
reset
transpose
0
reset
display chords
guitar tuner
edit
Autoscroll
slow
fast
+/-
esc
set tempo
stop
Strumming
There is no strumming pattern for this song yet. and get +5 IQ
Jon Bon Jovi - Never Say Die
Album: Young Guns II/ Blaze of Glory



Intro:

A    A    B    D
A    A    B    D

Intro 2 (With Fill):

A    D    A    D
A    D    A    D 

FILL:

    A                        A                         D
    Q.      Q.      Q        Q.      Q.      Q         Q.      Q.      Q     
e|------------------------|-------------------------|------------------------|
B|--14------12------10----|--14------12------10s----|--15------14------12----|
G|------------------------|-------------------------|------------------------|
D|------------------------|-------------------------|------------------------|
A|------------------------|-------------------------|------------------------|
E|------------------------|-------------------------|------------------------|

    D                               A
    Q.      Q.     S   S  S   S     Q.      Q.      Q     
e|-------------------------------|------------------------|
B|--10--------------------10h-12-|--14------12------10----|
G|----------11------9h-11--------|------------------------|
D|-------------------------------|------------------------|
A|-------------------------------|------------------------|
E|-------------------------------|------------------------|

    A                        D                         D
    Q.      Q.      Q         Q.      Q.      Q        Q.      Q.     Q     
e|-------------------------|------------------------|-----------------------|
B|--14------12------10s----|--15------14------12----|--10-------------------|
G|-------------------------|------------------------|----------11------9----|
D|-------------------------|------------------------|-----------------------|
A|-------------------------|------------------------|-----------------------|
E|-------------------------|------------------------|-----------------------|

Verse 1:

A
As we stood there older than men
D
And younger than the boys (that's right)
A
We were as still as the wind
D
That blows on a hot august night

Verse 2:

A
And you were lonesome As a jukebox
D
But deadly just the same
A
I could be as gentle as a newborn
D
Then spit into the eye of a hurricane

Pre Chorus:

E
And we knew how to laugh
D                 A    
And we knew how to cry
E
Yeah, we sure knew how to live
B               E
But we don't ever

Chorus (With Fill):

A               D
Never say die

A               D
Never say die

Verse 3:

A
I guess you'd say we had a pact
D
These words we knew so well (that's right)
A
Still they remained unspoken
D
And we'd take them to the fiery Gates of hell

Pre Chorus:

E
Once i was afraid of love
D                          A
But when it's your brother Those things change
E
'cause love is just another word For trust
B                        
So hear me when i say
E         
Never say 

Chorus (No Fill):

A
die Never say 
D
no You got to look them in 
A                      D
the eye And don't let go

E
When it's your own blood you'll bleed
D                    A
And your own tears you'll cry
E
When you're brought up to believe
B
That it's the strong who survive
E            A
Never say die

Fill 

A    D    A    D

Guitar Solo

A    D    A    D  E

    A
    S   S  S   S  H.             
e|-------------------------------|
B|-----------------14~-----------|
G|----------14h16----------------|
D|--14h--16----------------------|
A|-------------------------------|
E|-------------------------------|

    A                                D
    Q      E   E    Q     E   E      H.            E   E    
e|--------------------------------|-------------------------|
B|---------17---L---------17------|-------------------------|
G|--16b-----L--14b~--L--------16--|--14~------------L--14p--|
D|--------------------------------|-------------------------|
A|--------------------------------|-------------------------|
E|--------------------------------|-------------------------|

    D                        A                                                  
    H         Q.      E         H         Q.      E    
e|------------------------|----------------------------|
B|------------------------|----------------------------|
G|--13~-\3/-----------16--|--16g14~--------L------16b--|
D|----Whammy Bar----------|----------------------------|
A|------------------------|----------------------------|
E|------------------------|----------------------------|

    A                               D
    H.             E      E         Q      Q     E    E.   S   S   S  
e|-------------------------------|------------------------------------|
B|--17b------------17pbr--17pbr--|--15b~----L----17~--15--------------|
G|-------------------------------|-------------------------16p-14h-16-|
D|-------------------------------|------------------------------------|
A|-------------------------------|------------------------------------|
E|-------------------------------|------------------------------------|

    E
    S   S  S  S   S  S  S   S  S  S   S  S  S   S  S  S     W                 
e|----------------------------------------------------17b-|--L----------------|
B|--17p-14----17p-14----17p-14----17p-14----17p-14--------|-------------------|
G|---------16--------16--------16--------16--------16-----|-------------------|
D|--------------------------------------------------------|-------------------|
A|--------------------------------------------------------|-------------------|
E|--------------------------------------------------------|-------------------|


Bridge:

E
Yeah, and we could run like lightning
D                   A
Through the pouring rain
E
And we'll be standing like a soldier
B                           E
Who comes marching home again

Intro repeat:

A    A    B    D
A    A    B    D

Low Part:

A
They ask what it is that i want written
D
On the gravestone where I'll lie
A
Tell them it's just my bones That died there
D
So save the tears they'll cry

E
My spirit is still riding somewhere
D                   A
Somewhere in this night
E
When it's these three words that come to me
B                          E
As i kiss this world goodbye

Final Chorus:

           A  
Never say die
           D
Never say no
                  A
You got to look them in the eye
               D
And don't let go
E
When it's your own blood you'll bleed
D                     A
And your own tears you'll cry
E
When you're brought up to believe 
B                               E
That it's the strong who survive
           A
Never say die

Repeat and fade out with fill

A    D    A    D
A    D    A    D
A    D    A    D

            
            
Suggest correction
Creating personal tab
Creating personal tab
You can edit any tab online and save it as your Personal.

You can edit, replace or remove any tab part or add personal notes – all changes will be seen only by you.

Personal tabs can be accessed anytime from any device, even offline.
Learn more »
Give kudos to tab author, rate the tab!
1 2 3 4 5
comments
print report bad tab
1 comment total.
0 reply
NSpen1 [tm] 13,511 May 14, 2017 02:03 PM

I corrected the first bar of the solo for you, now you've changed it back to the wrong notes, listen, it should be a string higher.

guest
You may want to rate the tab now too:
select rating
Wanna post a correction for this tab? Suggest correction