Oops, an error
Loading. Please wait.

Again tab

6,748 views 12 this week
4 commentsread comments
1 2 3 4 5
x 5
add to favorites
×
Save as Personal and add changes to this tab that will be seen only by you. Learn more ›
×
You can save this tab as Personal to edit and correct it or add notes. All changes will be seen only by you. Learn more »
launch autoscroll
font size
0
reset
how to read this tab
guitar tuner
edit
Autoscroll
slow
fast
+/-
esc
set tempo
stop
Author
Jon Foreman
Again
Summer EP -- 2008

Tuning - Standard (E A D G B e)
*Chords are listed at end of song

Intro: Part 1 (0:00-0:16)
Sitar intro transposed 
E|-------------------------------------------------------------------|
B|-----5--7--5--3--------5--7--5--3--7-------5--7--5--3--7-----------|
G|--7--------------4--7----------------h4--7---------------h4--------|
D|-------------------------------------------------------------7--7--|
A|-------------------------------------------------------------------|
E|-------------------------------------------------------------------|

Intro: Part 2 (0:16-0:36)
E|----------------------------------------------------|
B|----------------------------------------------------|
G|-----2--0--------------2-------2--0--------------2--|
D|--0-------h4--0--2--4-------0-------h4--0--2--4-----|
A|----------------------------------------------------|
E|----------------------------------------------------|

E|----------------------------------------------------|
B|----------------------------------------------------|
G|-----2--0--------------2-------2--0--------------2--|
D|----------h4--0--2--4---------------h4--0--2--4-----|
A|----------------------------------------------------|
E|--3-------------------------3-----------------------|

Verse - Same as Intro: Part 2 (2x)
Oh Lord, God of our fathers
This day let it be known
That you Lord
Are God of the present tense

Oh Lord, Father of history
This day let it be known
That you Lord
Are present in our human events

Chorus - Listen for picking pattern
Dsus2         Gsus2
Answer me, Oh Lord
Dsus2           Gsus2
Let Your people know
          Bm7         Asus2       
That Your turning our hearts
        Gsus2
Back to You
          Bm7         Asus2       
That Your turning our hearts
        Gsus2
Back to You

Interlude - Same as Intro: Part 2 

Bridge - Same as Intro: Part 2 
Holy, Holy
You alone are true
Holy, Holy
You alone are true
Turn us back towards You

Chorus 

Outro - Same as Intro: Part 2 

*Chords Used
  Dsus2  Gsus2  Bm7  Asus2 
E|--------3------2--------|
B|--3-----3------3-----0--|
G|--2-----0------2-----2--|
D|--0-----0------4-----2--|
A|--------x------2-----0--|
E|--------3---------------|


            
            
Suggest correction
Creating personal tab
Creating personal tab
You can edit any tab online and save it as your Personal.

You can edit, replace or remove any tab part or add personal notes – all changes will be seen only by you.

Personal tabs can be accessed anytime from any device, even offline.
Learn more »
comments
print report bad tab
4 comments total. Showing first comments.
0 reply
burnaftermore 31 Nov 30, 2008 05:32 PM

YEE again tab. thanks tim.

+1 reply
Fealsamh 42 Dec 04, 2008 07:06 PM

Thanks for tabbing this! The only recommendation I have is to play the first D note of part two as the 5th fret of the A string so it can ring out during the rest of the phrase.

+1 reply
azhomefry 51 Jan 24, 2009 11:36 AM

Thanks for the great tab! Here's a couple suggestions, though. It sounds like Jon's getting hitting that D an octave lower on the intro, so drop the low E down. Then you'll play the G on the 5th fret for the second part of the guitar intro. It's a bit of a reach, but well worth it if you can manage. This means you'll play the G chord 5x0033 instead. You can also hear he repeats the bass notes more in the intro. Here's a little more detailed tab for the intro:

E|-----------------------------------------------|
B|-----------------------------------------------|
G|-------2p0--------0-----------------2----------| X2
D|----0----------0-----4-----0--2--4-------------|
A|-----------------------------------------------|
D|--0---------0-----------0----------------------|

E|-----------------------------------------------|
B|-----------------------------------------------|
G|-------2p0--------0-----------------2----------| X2
D|----0----------0-----4-----0--2--4-------------|
A|-----------------------------------------------|
D|--5---------5-----------5----------------------|

Great job, though, 5 stars!

guest
You may want to rate the tab now too:
select rating
Wanna post a correction for this tab? Suggest correction