Oops, an error
Loading. Please wait.

Behind Your Eyes tab

version 2
version 2

Whole song

Interactive

2,787 views 1 this week
2 commentsread comments
1 2 3 4 5
x 3
add to favorites
×
Save as Personal and add changes to this tab that will be seen only by you. Learn more ›
×
You can save this tab as Personal to edit and correct it or add notes. All changes will be seen only by you. Learn more »
launch autoscroll
font size
0
reset
how to read this tab
guitar tuner
edit
Autoscroll
slow
fast
+/-
esc
set tempo
stop
Difficulty
intermediate
Tabed by: Sydney Grodi

The other tab before this has the main notes, but Jon plays it with more strings
so I decided to tab it. Listen to the song to get the rythem.


E----------------------------------------------------------------------------|
B-----2------2----2-----2---2-----2---2------2-----2---------2-----2-------2-|
G----0------0----0-----0---0-----0---0------0-----0---0h2--0-----0---0h2--0--|
D-------0h2--------0h2------0h2--------0h2----3--------------3---------------|
A--3----------3---------0---------0------------------------------------------|
E----------------------------------------------------------------------------|

E-----------------------------|
B-----2-------2-----2---------|
G----0------0-----0-----------|   (Repeat)
D-------0h2-----------2p0-----|
A--3------------3---------2-3-|
E-----------------------------|

            
            
Suggest correction
Creating personal tab
Creating personal tab
You can edit any tab online and save it as your Personal.

You can edit, replace or remove any tab part or add personal notes – all changes will be seen only by you.

Personal tabs can be accessed anytime from any device, even offline.
Learn more »
Give kudos to tab author, rate the tab!
1 2 3 4 5
comments
print report bad tab
2 comments total.
+1 reply
TIMAY21 944 Mar 22, 2008 08:52 AM

That's just part of the song and there's a couple notes that are just way off.

0 reply
dare_u_2_move 658 May 08, 2009 05:54 PM

its not 2 on the b string its 1

guest
Wanna post a correction for this tab? Suggest correction